» » »

Kelly Family, Fell In Love With An Alien Tabs (ver.1)

Artists:  A B C D E F G H I J K L M N O P Q R S T U V W X Y Z # 

Fell In Love With An Alien Tabs (ver.1)

Kelly Family Tabs
Rating:
1/5 (2 votes)
Fell In Love With An Alien lessons Tabs too difficult? Try these video lessons and learn fast
                FELL IN LOVE WITH AN ALIEN- THE KELLY FAMILY TAB

CAPO ON 3rd FRET!
The chorus is sung with strumming.
This is the finger picking for verses:

    Am         G             Em            Am
E| ----0-------------1------------0---------------------------------------------------|
B| ----1-------------0------------0----------------0h1--------------------------------|
G| ----2-----------0--------------0--------------2------------------------------------|
D| --------------------------------------------2--------------------------------------|
A| --0--------------------------------------0-----------------------------------------|
E| -------------3-------------0-------------------------------------------------------|





     Am        Dm                   G             Am
E| -----0-----------------0h1------------3----------------0---------------------------|
B| -----1--------------3-----------------0----------------1---------------------------|
G| -----2-----------2--------------------0--------------2-----------------------------|
D| -------------0---------------------------------------------------------------------|
A| --0----------------------------------------------0---------------------------------|
E| ----------------------------------3------------------------------------------------|




Am         G                Em           Am
Out in the fields where the farmers grow bread

     Am             Dm         G            Am
When called for the meals they took for the shed

     Am           G        Em          Am
Then dark came to fall and silence was all

  Am           Dm        G          Am
A beauty shone bright surrounded by light

Am                     F     G                      C
I fell in love with an alien, fell in love with her eyes

Am                   F         G                 Am
Fell in love with an alien I'm telling you no disguise

....

F               G        Em  C  F               G          Em  C
She looking out babe for romeo, she looking out babe for a homebo

Am                 F
I'm in love with an alien...

    Am           G        Em          Am
The moon went to bed, the sun growing red

  Am          Dm         G             Am
A scarecrow appeared and chased her in fear

    Am          G         Em         Am
She send me her love, she send it to me

    Am          Dm     G       Am
And then we did grow a big family

Am                     F
I fell in love with an alien...

F               G        Em  C  F               G          Em  C
She looking out babe for romeo, she looking out babe for a homebo

Instrumental-Solo:

Chords: Am F G C
        Am F G Am

Electric Guitar (w/ wah-wah pedal)


E|------------------------------------------------------------------------------------|
B|-10-10-10--8-----8-------10-10-10-8----8h10-8-------10-10-10--8-----8------5h6-5-3~-|
G|--------------10----7---------------10---------------------------10----5-5----------|
D|------------------------------------------------------------------------------------|
A|------------------------------------------------------------------------------------|
E|------------------------------------------------------------------------------------|


Fell in love with an alien, fell in love with her eyes
Fell in love with an alien, I'm telling you no disguise.

Am                  F
I'm in love with an alien..

Am                   F
Fell in love with an alien...

Am                  F      G                    C
I'm in love with an alien, I'm in love with her eyes

Am                  F      G                 Am
I'm in love with an alien, telling you no disguise

G                 Am
Telling you no disguise
            

comments powered by Disqus
↑ Back to top | Kelly Family Tabs for Fell In Love With An Alien. Lyrics for acoustic guitar and electric guitar. Tablatures and chords are parodies/interpretations of the original songs. You may use it for private study, scholarship, research or language learning purposes only