» » »

Nothing In My Way Bass tabs (ver.1)

Artists:  A B C D E F G H I J K L M N O P Q R S T U V W X Y Z # 

Nothing In My Way Bass tabs (ver.1)

Keane
Rating:
0/5 (0 votes)

Hard to play? Try these video lessons and learn fast.
                

Tuning: Standard


Intro and verse notes have been condensed for the space. Just hear the song and you'll 
the time. I've heard this song enough times to get the right notes =D.

INTRO
G|-----------------------------------------------------------------|
D|-----------------------------------------------------------------|
A|444444444444434566666-466-466-46---------------------------------|
E|---------------------6---6---6--44444444444443456666664666466646-|


VERSE (play twice)
G|-----------------------------------------------------------------|
D|-----------------------------------------------------------------|
A|444444444444434566666-466-466-46---------------------------------|
E|---------------------6---6---6--44444444444443456666664666466646-|


PRE CHORUS
G|-----------------------------------------------------------------|
D|-----------------------------------------------------------------|
A|6-6-6-6-6-6-6-6-8-8-8-8-8-8-8-8----------------------------------|
E|-----------------------------------------------------------------|


CHORUS (play this twice)
G|-----------------------------------------------------------------|
D|-----------------------------------------------------------------|
A|----------------------------------------1-1-1-1-6-6-6-6-8-8-8-8--|
E|6-6-6-6-4-4-4-4-6-6-6-6-4-4-4-4-2-2-2-2--------------------------|

G|---------------------------------|
D|---------------------------------|
A|6-6-6-6-6-6-6-6-8-8-8-8-8-8-8-8--|
E|---------------------------------|

G|----------------|  Play this the
D|----------------|  the second time
A|6-6-6-6---------|
E|--------4-4-2-2-|


VERSE (play once)
G|-----------------------------------------------------------------|
D|-----------------------------------------------------------------|
A|444444444444434566666-466-466-46---------------------------------|
E|---------------------6---6---6--44444444444443456666664666466646-|


PRE CHORUS
G|-----------------------------------------------------------------|
D|-----------------------------------------------------------------|
A|6-6-6-6-6-6-6-6-8-8-8-8-8-8-8-8----------------------------------|
E|-----------------------------------------------------------------|


CHORUS (play this twice)
G|-----------------------------------------------------------------|
D|-----------------------------------------------------------------|
A|----------------------------------------1-1-1-1-6-6-6-6-8-8-8-8--|
E|6-6-6-6-4-4-4-4-6-6-6-6-4-4-4-4-2-2-2-2--------------------------|

G|---------------------------------|
D|---------------------------------|
A|6-6-6-6-6-6-6-6-8-8-8-8-8-8-8-8--|
E|---------------------------------|

G|----------------|  Play this the
D|----------------|  the second time
A|6-6-4-4---------|
E|--------4-4-2-2-|


BRIDGE
G|---------------------------------------------------------------|
D|---------------------------------------------------------------|
A|4-4-4-4-4-4-4-4-4-4-4-4-4-4-4-4-4-4-4-4-4-4-4-4-4-4-4-4-4-3-4-5|
E|-----------------------------6---------------------------------|


OUTRO
G|-----------------------------------------------------------------|
D|-----------------------------------------------------------------|
A|-6-6-4-------4-------------------6-6-4-------4-----------4-3-4-5-|
E|-------6-6-6---6-2-2-2-2-1-1-1-1-------6-6-6---6-2-2-2-2---------|

G|---------------------------------------------------------------------|
D|---------------------------------------------------------------------|
A|-6-6-4-------------------------------6-6-4-------4-------------------|
E|-------6-6-6-6-6-2-2-2-2/13-13-13-13-------6-6-6---6-2-2-2-2-4-4-4-4-|

G|---------------------------------------------------------------------|
D|-----------------------------------------------------4-4-4-4---------|
A|-6-6-4-------4-----------------------6-6-4-------4-----------4-3-4-5-|
E|-------6-6-6---6-2-2-2-2/13-13-13-13-------6-6-6---6-----------------|

G|-------------------------------------------------------------------------|
D|-------------------------------------------------------------------------|
A|-6-6-4-----------------------------------6-6-4-------4-------------------|
E|-------6-6-6-6-6-14-14-14-16/13-13-13-13-------6-6-6---6-2-2-2-2-4-4-4-4-|

G|----|
D|----| Final
A|-4--| note
E|----|

| /  slide up
| \  slide down
| h  hammer-on
| p  pull-off
| ~  vibrato
| +  harmonic
| x  Mute note
            
Hard to play? Try these video lessons and learn fast. | Correct




comments powered by Disqus
↑ Back to top | Tablatures and chords are parodies/interpretations of the original songs. You may use it for private study, scholarship, research or language learning purposes only