» » »

Teenage Dream Tabs (ver.2)

Artists:  A B C D E F G H I J K L M N O P Q R S T U V W X Y Z # 

Teenage Dream Tabs (ver.2)

Katy Perry
Rating:
0/5 (0 votes)

Tabs too difficult? Try these video lessons and learn fast.
                Hey here is a tab for Teenage Dream by Katy Perry. Pretty easy song to play. And a 
great song. Well, enjoy!!


Intro:
E||-------------------|
B||-------------------|
G||-777777777755555555|
D||-888888888888888888|
A||-------------------|
D||-------------------|

Verse: 
E||-------------------|
B||-------------------|
G||-777777777755555555|
D||-888888888888888888|
A||-------------------| Do this until the Chorus (12x I believe..)
D||-------------------|

Chorus:
E||-------------------|
B||-------------------|
G||-------------------|
D||-1----5--33--------|
A||-1----5--33--------|
D||-1----5--33--------|

Verse:
E||-------------------|
B||-------------------|
G||-777777777755555555|
D||-888888888888888888|
A||-------------------| This time 8x I believe..
D||-------------------|


Chorus:
E||-------------------|
B||-------------------|
G||-------------------|
D||-1----5--33--------|
A||-1----5--33--------|
D||-1----5--33--------|

This is pretty much it for the whole song. It just repeats. 
            
Tabs too difficult? Try these video lessons and learn fast.


comments powered by Disqus
↑ Back to top | Tablatures and chords are parodies/interpretations of the original songs. You may use it for private study, scholarship, research or language learning purposes only