» » »

Katy Perry, Firework Bass tabs (ver.1)

Artists:  A B C D E F G H I J K L M N O P Q R S T U V W X Y Z # 

Firework Bass tabs (ver.1)

Katy Perry Tabs
 Rating:
4.6/5 (10 votes)
Firework lessons Tabs too difficult? Try these video lessons and learn fast
                Hey Guys,

In here is everything youll need to play this song. A Video showing this exact tab
being played can be found here...



Katy Perry - Firework Bass Tab


Intro (I Play this in the intro with the bass drum)

G|-----------------------------------------------|
D|-----------------------------------------------|
A|----------------------------------4--4--4--4---|
E|-4--4--4--4-6--6--6--6-1--1--1--1--------------|


Verse/Chorus

G|-------------------------------------------------------------------|
D|-------------------------------------------------------------------|
A|-------------------------------------------------4-4-4-4-4-4-4-4---|
E|-4-4-4-4-4-4-4-4-6-6-6-6-6-6-6-6-1-1-1-1-1-1-1-1-------------------|


2nd Verse (If your using a pic which i think this song crys out for, use a down
upstroke on this bit, Down Stroke for the muted notes (X's) and a upstroke for the
fretted notes


G|------------------------------------------------------------------|
D|------------------------------------------------------------------|
A|-------------------------------------------------x-4-x-4-x-4-x-4--|
E|-x-4-x-4-x-4-x-4-x-6-x-6-x-6-x-6-x-1-x-1-x-1-x-1------------------|

Chorus fill

G|-------------------------------------------------------------------|
D|-------------------------------------------------------------------|
A|-------------------------------------------------4-3-----4-3-------|
E|-4-4-4-4-4-4-4-4-6-6-6-6-6-6-6-6-1-1-1-1-1-1-1-1-----6-4-----6-4---|

Interlude

G|--------------------------------------------------------------------|
D|--------------------------------------------------------------------|
A|---------------------------------4-4-4-4-4-4-4-4-4-4-4-4-4-4-4-4----|
E|-1-1-1-1-1-1-1-1-1-1-1-1-1-1-1-1------------------------------------|


G|------------------------------------------------------------------------------------|
D|------------------------------------------------------------------------------------|
A|------------------------------------------------------------------------------------|
E|-4-4-4-4-4-4-4-4-4-4-4-4-4-4-4-4--11-11-11-11-11-11-11-11-11-11-11-11-11-11-11-11---|


Ending

G|--------------------------------------------------------------------|
D|--------------------------------------------------------------------|
A|-------------------------------------------------4-3-----4-3--------|
E|-4-4-4-4-4-4-4-4-6-6-6-6-6-6-6-6-1-1-1-1-1-1-1-1-----6-4-----6-4~---|


So yeah, thats everything, Have other covers with tabs available here...


would be so gratefull if you could subscribe to me on there and let me know how you
got on with this tab

Take it easy :)
            
Submit corrections

comments powered by Disqus
↑ Back to top | Katy Perry Bass for Firework. Lyrics for acoustic guitar and electric guitar. Tablatures and chords are parodies/interpretations of the original songs. You may use it for private study, scholarship, research or language learning purposes only