» » »

Nine Millions Bicycles Tabs (ver.1)

Artists:  A B C D E F G H I J K L M N O P Q R S T U V W X Y Z # 

Nine Millions Bicycles Tabs (ver.1)

Katie Melua
Rating:
5/5 (3 votes)

Hard to play? Try these video lessons and learn fast.
                Katie Melua
Nine Million Bicycles (in Beijing)
OTHER ONE I SENT.  THIS ONE CONTAINS CORRECTIONS!  THANKS

-----------------------------------------------------------|
-------------------1---------------------------------------|
---------------0-----0----0--------------------------------|
-------------2---2-----2-----x2----------------------------|
-----------3-----------------------------------------------|
-----------------------------------------------------------|
There are nine          million        bicycles  in    Bei-

-------------------3-----------------------------1--------------|
---------------------0--0--------------------3-----3---3--------|
---------------0-----------x2--------------2---2-----2----x2----|
-------------2---2-----2-----------------0----------------------|
----------------------------------------------------------------|
-----------0----------------------------------------------------|
           jing                 it's a   fact,           it's a

--------------------1-------------------------------------------|
----------------3-----3---3-------------------------------------|
--------------2---2-----2------x3-------------------------------|
------------0---------------------------------------------------|
----------------------------------------------------------------|
----------1(thumb)----------------------------------------------|

          thing     we   can't   deny  like the fact that I will

-----------------1----------------------------------------------|
-------------------0--------------------------1-----------------|
-------------0---------0-------------------0-----0--0-----------|
-----------3---3-----3-------------------2---2-----2------------|
---------------------------------------3------------------------|
--------3-------------------------------------------------------|
        love    you  'till        I      die.

Repeat the above for all the other versus...and at the end, conclude by repeating the 
line of tab while singing "And you know that I will love you 'till I die!"

Chorus:

--------------1-------------------------------------------------|
---------1------1---1----------------------1--------------------|
-------1---1------1--------------------0-----0--0---------------|
-----3-------------------------------2---2-----2----------------|
----------(barrechord)-------------3----------------------------|
----------------------------------------------------------------|
I'm warmed       by       the      fire        of your

---------------1------------------------------------------------|
----------1------1---1---------------1--------------------------|
-------1----1------1-------------2-----2---2--------------------|
-----3-------------------------2---2-----2----------------------|
-----------------------------0----------------------------------|
----------------------------------------------------------------|
     love         every       day        so  don't

------------1-----------------------------------------1---------|
--------1-----1---1---------------1----------------1----1---1---|
------1---1-----1-------------0-----0---0-------2---2-----2-----|
----3-----------------------2---2-----2--------3----------------|
--------------------------3-------------------------------------|
----------------------------------------------------------------|
   call    me    a       liar,       just believe     every

-----------1-----------------------1----------------------------|
-------3-----3----3---------------------------------------------|
-----2---2------2--------------0------x2------------------------|
---3-------------------------0---0------------------------------|
----------------------------------------------------------------|
---------------------------3------------------------------------|
thing           that I    say             There are six billion...


*****So that's it. It's hard to capture the flow of the song in tab, but
if you listen to the recording, you should be able to get the idea*********

Enjoy!



thing that


love every day
            
Hard to play? Try these video lessons and learn fast. | Correct




comments powered by Disqus
↑ Back to top | Tablatures and chords are parodies/interpretations of the original songs. You may use it for private study, scholarship, research or language learning purposes only