>
 >
Nine Million Bicycles 1

Nine Million Bicycles 1 Guitar Tabs

Katie Melua - Nine Million Bicycles 1 chords, tabs, tablatures, lyrics

Guitar lessons | Add/correct | Request | Top 50 tabs Artists:  A B C D E F G H I J K L M N O P Q R S T U V W X Y Z 0-9

Nine Million Bicycles 1 Guitar Tabs – Katie Melua

CD, Sheet music, Poster

Do you like Nine Million Bicycles 1? Share with your friends now
ChordsChords v2TabsTabs v2Ukulele
- Nine Million Bicycles - 

Words And Music: Mike Batt


Tune: Standard tuning, however Katie Melua often uses a capo in the first fret.
 

    Intro:
e|-------1---1----------1---1----------3---3----------3---3------------|
B|-----3-------3------3-------3------1-------1------1-------1----------|
G|---0-----0--------0-----0--------0-----0--------0-----0--------------|
D|---------------------------------------------------------------------|
A|-3--------------3--------------3--------------3----------------------|
E|---------------------------------------------------------------------|
                                                    

 Verse:
   C              C              Em             Em
e|---------------------------------------------------------------------|
B|-------1---1----------1---1----------0---0----------0---0------------|
G|-----0-------0------0-------0------0-------0------0-------0----------|
D|---2-----2--------2-----2--------2-----2--------2-----2--------------|
A|-3--------------3----------------------------------------------------|
E|-------------------------------0--------------0----------------------|
  There are nine million bicycles in Beijing

   Dm             Dm             F              F
e|-------1---1----------1---1----------1---1----------1---1------------|
B|-----3-------3------3-------3------1-------1------1-------1----------|
G|---2-----2--------2-----2--------2-----2--------2-----2--------------|
D|-0--------------0--------------3--------------3----------------------|
A|---------------------------------------------------------------------|
E|---------------------------------------------------------------------|
  That's a fact, It's a thing you can't deny

   Dm             G              C              C
e|-------1---1----------3---3------------------------------------------|
B|-----3-------3------0-------0--------1---1----------1---1------------|
G|---2-----2--------0-----0----------0-------0------0-------0----------|
D|-0-------------------------------2-----2--------2-----2--------------|
A|-------------------------------3--------------3----------------------|
E|----------------3----------------------------------------------------|
  Like the fact that I will love you till I die

   C              C              Em             Em
e|---------------------------------------------------------------------|
B|-------1---1----------1---1----------0---0----------0---0------------|
G|-----0-------0------0-------0------0-------0------0-------0----------|
D|---2-----2--------2-----2--------2-----2--------2-----2--------------|
A|-3--------------3----------------------------------------------------|
E|-------------------------------0--------------0----------------------|
  We are twelve million light years from the edge

   Dm             Dm             F              F
e|-------1---1----------1---1----------1---1----------1---1------------|
B|-----3-------3------3-------3------1-------1------1-------1----------|
G|---2-----2--------2-----2--------2-----2--------2-----2--------------|
D|-0--------------0--------------3--------------3----------------------|
A|---------------------------------------------------------------------|
E|---------------------------------------------------------------------|
  That's a guess, No one can ever say it's true

   Dm             G              C              C
e|-------1---1----------3---3------------------------------------------|
B|-----3-------3------0-------0--------1---1----------1---1------------|
G|---2-----2--------0-----0----------0-------0------0-------0----------|
D|-0-------------------------------2-----2--------2-----2--------------|
A|-------------------------------3--------------3----------------------|
E|----------------3----------------------------------------------------|
  But I know that I will always be with you


 Chorus:
   F              C              G              Am             Am
e|-------1---1----------0---0----------3---3----------0---0----------0-|
B|-----1-------1------1-------1------0-------0------1-------1------1---|
G|---1-----1--------0-----0--------0-----0--------2-----2--------2-----|
D|---------------------------------------------------------------------|
A|----------------3-----------------------------0--------------0-------|
E|-1-----------------------------3-------------------------------------|
  I'm warmed by the fire of your love everyday

          F              C              D              D
e|---0----------1---1----------0---0----------2---2----------2---2-----|
B|-----1------1-------1------1-------1------3-------3------3-------3---|
G|-2--------1-----1--------0-----0--------2-----2--------2-----2-------|
D|--------------------------------------0--------------0---------------|
A|-----------------------3---------------------------------------------|
E|--------1------------------------------------------------------------|
  So don't call me a liar, Just believe everything 

   G              G
e|-------3---3----------3---3------------------------------------------|
B|-----0-------0------0-------0----------------------------------------|
G|---0-----0--------0-----0--------------------------------------------|
D|---------------------------------------------------------------------|
A|---------------------------------------------------------------------|
E|-3--------------3----------------------------------------------------|
  that I say


 Verse:
   C              C              Em             Em
e|---------------------------------------------------------------------|
B|-------1---1----------1---1----------0---0----------0---0------------|
G|-----0-------0------0-------0------0-------0------0-------0----------|
D|---2-----2--------2-----2--------2-----2--------2-----2--------------|
A|-3--------------3----------------------------------------------------|
E|-------------------------------0--------------0----------------------|
  There are six billion people in the world

   Dm             Dm             F              F
e|-------1---1----------1---1----------1---1----------1---1------------|
B|-----3-------3------3-------3------1-------1------1-------1----------|
G|---2-----2--------2-----2--------2-----2--------2-----2--------------|
D|-0--------------0--------------3--------------3----------------------|
A|---------------------------------------------------------------------|
E|---------------------------------------------------------------------|
  More or less, And it makes me feel quite small

   Dm             G              C              C
e|-------1---1----------3---3------------------------------------------|
B|-----3-------3------0-------0--------1---1----------1---1------------|
G|---2-----2--------0-----0----------0-------0------0-------0----------|
D|-0-------------------------------2-----2--------2-----2--------------|
A|-------------------------------3--------------3----------------------|
E|----------------3----------------------------------------------------|
  But you're the one I love the most of all


 Interlude:
   C              C              Em             Em
e|---------------------------------------------------------------------|
B|-------1---1----------1---1----------0---0----------0---0------------|
G|-----0-------0------0-------0------0-------0------0-------0----------|
D|---2-----2--------2-----2--------2-----2--------2-----2--------------|
A|-3--------------3----------------------------------------------------|
E|-------------------------------0--------------0----------------------|

   Dm             Dm             F              F
e|-------1---1----------1---1----------1---1----------1---1------------|
B|-----3-------3------3-------3------1-------1------1-------1----------|
G|---2-----2--------2-----2--------2-----2--------2-----2--------------|
D|-0--------------0--------------3--------------3----------------------|
A|---------------------------------------------------------------------|
E|---------------------------------------------------------------------|

   Dm             G              C              C
e|-------1---1----------3---3------------------------------------------|
B|-----3-------3------0-------0--------1---1----------1---1------------|
G|---2-----2--------0-----0----------0-------0------0-------0----------|
D|-0-------------------------------2-----2--------2-----2--------------|
A|-------------------------------3--------------3----------------------|
E|----------------3----------------------------------------------------|


 Chorus:
   F              C              G              Am             Am
e|-------1---1----------0---0----------3---3----------0---0----------0-|
B|-----1-------1------1-------1------0-------0------1-------1------1---|
G|---1-----1--------0-----0--------0-----0--------2-----2--------2-----|
D|---------------------------------------------------------------------|
A|----------------3-----------------------------0--------------0-------|
E|-1-----------------------------3-------------------------------------|
  We're high on the wire, With the world in our sight

          F              C              D               D
e|---0----------1---1----------0---0-----------2---2----------2---2----|
B|-----1------1-------1------1-------1-------3-------3------3-------3--|
G|-2--------1-----1--------0-----0---------2-----2--------2-----2------|
D|--------------------------------------0---------------0--------------|
A|-----------------------3---------------------------------------------|
E|--------1------------------------------------------------------------|
  And I'll never tire, Of the love that you give me

   G              G
e|-------3---3----------3---3------------------------------------------|
B|-----0-------0------0-------0----------------------------------------|
G|---0-----0--------0-----0--------------------------------------------|
D|---------------------------------------------------------------------|
A|---------------------------------------------------------------------|
E|-3--------------3----------------------------------------------------|
  every night


 Verse:
   C              C              Em             Em
e|---------------------------------------------------------------------|
B|-------1---1----------1---1----------0---0----------0---0------------|
G|-----0-------0------0-------0------0-------0------0-------0----------|
D|---2-----2--------2-----2--------2-----2--------2-----2--------------|
A|-3--------------3----------------------------------------------------|
E|-------------------------------0--------------0----------------------|
  There are nine million bicycles in Beijing

   Dm             Dm             F              F
e|-------1---1----------1---1----------1---1----------1---1------------|
B|-----3-------3------3-------3------1-------1------1-------1----------|
G|---2-----2--------2-----2--------2-----2--------2-----2--------------|
D|-0--------------0--------------3--------------3----------------------|
A|---------------------------------------------------------------------|
E|---------------------------------------------------------------------|
  It's a thing we can't deny

   Dm             G              C              C
e|-------1---1----------3---3------------------------------------------|
B|-----3-------3------0-------0--------1---1----------1---1------------|
G|---2-----2--------0-----0----------0-------0------0-------0----------|
D|-0-------------------------------2-----2--------2-----2--------------|
A|-------------------------------3--------------3----------------------|
E|----------------3----------------------------------------------------|
  Like the fact that I will love you till I die

   Dm             G              C              C
e|-------1---1----------3---3------------------------------------------|
B|-----3-------3------0-------0--------1---1----------1---1------------|
G|---2-----2--------0-----0----------0-------0------0-------0----------|
D|-0-------------------------------2-----2--------2-----2--------------|
A|-------------------------------3--------------3----------------------|
E|----------------3----------------------------------------------------|
  And there are nine million bicycles in Beijing

   Dm             G              C              C
e|-------1---1----------3---3------------------------------------------|
B|-----3-------3------0-------0--------1---1----------1---1------------|
G|---2-----2--------0-----0----------0-------0------0-------0----------|
D|-0-------------------------------2-----2--------2-----2--------------|
A|-------------------------------3--------------3-------------3--------|
E|----------------3----------------------------------------------------|
  And you know that I will love you till I die





Comments


Popular Katie Melua tabs & chords
Closest Thing To Crazy Chords
Closest Thing To Crazy 2 Chords
Closest Thing To Crazy 3 Chords
If You Were A Sailboat Chords
Nine Millions Bicycles Chords
Tiger In The Night Chords
In My Secret Life Tabs
9 Million Bicycles Ukulele
Lucy In The Sky With Diamonds Ukulele
When You Taught Me How To Dance Ukulele


Song lyrics



↑ Back to top | Tablatures and chords are parodies/interpretations of the original songs. You may use it for private study, scholarship, research or language learning purposes only
© 2014 AZChords.com Contact us | Privacy policy | DMCA | Add/correct tabs | Request tabs | Top 50 tabs