» » »

We Get On Tabs (ver.2)

Artists:  A B C D E F G H I J K L M N O P Q R S T U V W X Y Z # 

We Get On Tabs (ver.2)

Kate Nash
Rating:
4/5 (1 vote)

Hard to play? Try these video lessons and learn fast.
                (Intro)
My first real tab
hope u like

|-------------------------|
|-------------------------|
|-------------------------|
|---5-7-5-7-5-------------| x 2
|-3-----------------------|
|-------------------------|

|-------------------------|
|-------------------------|
|----5-7-5-7-5------------|
|--3----------------------| x 2
|-------------------------|
|-------------------------|
            
Hard to play? Try these video lessons and learn fast. | Correct




comments powered by Disqus
↑ Back to top | Tablatures and chords are parodies/interpretations of the original songs. You may use it for private study, scholarship, research or language learning purposes only