» » »

Merry Happy Bass tabs (ver.1)

Artists:  A B C D E F G H I J K L M N O P Q R S T U V W X Y Z # 

Merry Happy Bass tabs (ver.1)

Kate Nash
Rating:
5/5 (1 vote)

Hard to play? Try these video lessons and learn fast.
                Artist - Kate Nash
Song - Merry Happy
Album - Made of Bricks
Track - 12
Bassist - Jay Malhotra

VERSE 1 (Just Kate on piano for first two times)
G---------------------------------------------------------|
D-------------7---------3/5-------------------------------|
A-----------7---7-----------5------------4----------------|
E-12/5-5----------3-3---------5-2-2----2---2-0-0----0-2-3-|

G------------------------------------------------------|
D----------7---------5h7/------------------------------|
A--------7---7------------------------4----------------|
E-5-5----------3-3---------5-2-2----2---2-0-0----0-2-3-|

PRE-CHORUS
G-----------------------------------------------------|
D-----------------------------------------------------|
A-----------------------------------------------------|
E-5-5-5---503-3---3---302-2---2---2-0-0----0----0-2-3-| X2

CHORUS
G----------------------------------|
D----------------------------------|
A----------------------------------|
E-5~~~~~~~~~~~~~~~~~~~~~~~---------|

G----------------------------------|
D----------------------------------|
A-0/12~~~~~~~~~~~~~~~~~~~~~--------|
E----------------------------------|

VERSE 2
G---------------------------------------------------------|
D-------------7---------3h5/------------------------------|
A-----------7---7------------------------4----------------|
E-12/5-5----------3-3---------5-2-2----2---2-0-0------2/3-|

G------------------------------------------------------|
D----------7------------5--------------4---------------|
A--------7---7--------5---5----------4---4-------------|
E-5-5----------3-3----------5-2-2----------0-0---0-2-3-|

G-------------------------------------------------------|
D----------------3/5-----------2/4----------------------|
A--------------------5-------------4--------------------|
E-5-5-5---503-3--------2-2--2--------5-0-0---0----0-2-3-|

G------------------------------------------------------------|
D------------7---------------------------4-------------------|
A---------/7---7-------3/5-------------4---4-----------------|
E-5-5--5---------3-3-------3-0-2-2--2--------0-0---0---0-2-3-|

PRE-CHORUS
G-----------------------------------------------------|
D-----------------------------------------------------|
A-----------------------------------------------------|
E-5-5-5---503-3---3---302-2---2---2-0-0----0----0-2-3-| X2

CHORUS
G----------------------------------|
D----------------------------------|
A----------------------------------|
E-5~~~~~~~~~~~~~~~~~~~~~~~---------|

G----------------------------------|
D----------------------------------|
A-0/12~~~~~~~~~~~~~~~~~~~~~--------|
E----------------------------------|

ENDING
G----------------------------------------------------------|
D------------7-------555-5-5/--------------------------2---|
A--------777-----------------------------------------2---2-|
E-12/555-------5/333----------222-222-2-2/--000-0-0--------|

G----------------------------------------------------------|
D-----------7/-----------5/--------------------------------|
A---------7------------5-----------------------------------|
E-555-555------333-333--------222-222-222-2-000-0-0--0-2-3-|

Bass then starts to fade out and is hard to hear, so i just repeat the last two riffs 
it fades completely
            
Hard to play? Try these video lessons and learn fast. | Correct




comments powered by Disqus
↑ Back to top | Tablatures and chords are parodies/interpretations of the original songs. You may use it for private study, scholarship, research or language learning purposes only