>
 >
Strained

Strained Guitar Tabs

Katatonia - Strained chords, tabs, tablatures, lyrics

Guitar lessons | Add/correct | Request | Top 50 tabs Artists:  A B C D E F G H I J K L M N O P Q R S T U V W X Y Z 0-9

Strained Guitar Tabs – Katatonia

CD, Sheet music, Poster

Do you like Strained? Share with your friends now
Tabs
Katatonia - Strained


tune 1/2 tone down

-------------------------------------------------------------------|
-------------------------------------------------------------------|


intro

guitar2
E------------|
B------------|
G------------|
D---5555-----|
A---5555-----|
E---3333-----|

-------------------------------------------------------------------


riff1

guitar1
E---------------------------------------------------|
B-7h8p7\5-------------------------------------------|
G---------------7--6h7p6\4--------------------------|
D---------------------------------------------------|
A---------------------------------------------------|
E---------------------------------------------------|

guitar2

E---------------------------------------------------|
B---------------------------------------------------|
G---------------------------------------------------|
D9-9-9-9-9-9-9-9-9-9-9-9-7-7-7-7--------------------|
A9-9-9-9-9-9-9-9-9-9-9-9-7-7-7-7--------------------|
E7-7-7-7-7-7-7-7-7-7-7-7-5-5-5-5--------------------|

guitar1

E---5-----------------------------------------------|
B-----5---------------------------------------------|
G-5-----5-------------------------------------------|
D-----------------7--5--3---------------------------|
A---------------------------------------------------|
E---------------------------------------------------|

guitar 2


E---------------------------------------------------|
B---------------------------------------------------|
G---------------------------------------------------|
D-3-3-3-3-3-3-3-3-3-2-3-2-3-2-3--5555---------------|
A-3-3-3-3-3-3-3-3-3-2-3-2-3-2-3--5555---------------|
E-1-1-1-1-1-1-1-1-1-0-1-0-1-0-1--3333---------------|


------------------------------------------------------------------


riff2

both guitars


E---------------------------------------------------|
B---------------------------------------------------|
G---------------------------------------------------|
D-9-9-9-9-9-9-9-9-9-9-9-9-9-7-7-7-------------------|
A-9-9-9-9-9-9-9-9-9-9-9-9-9-7-7-7-------------------|
E-7-7-7-7-7-7-7-7-7-7-7-7-7-5-5-5-------------------|


E---------------------------------------------------|
B---------------------------------------------------|
G---------------------------------------------------|
D-3-3-3-3-3-3-3-3-3-2-3-2-3-2-3--55559--------------|
A-3-3-3-3-3-3-3-3-3-2-3-2-3-2-3--55559--------------|
E-1-1-1-1-1-1-1-1-1-0-1-0-1-0-1--33337--------------|


------------------------------------------------------------------

riff  2'

both gituars


E---------------------------------------------------|
B---------------------------------------------------|
G---------------------------------------------------|
D-9-9-9-9-9-9-9-9-9-9-9-9-9-7-7-7-------------------|
A-9-9-9-9-9-9-9-9-9-9-9-9-9-7-7-7-------------------|
E-7-7-7-7-7-7-7-7-7-7-7-7-7-5-5-5-------------------|


E---------------------------------------------------|
B---------------------------------------------------|
G---------------------------------------------------|
D-3-3-3-3-3-3-3-3-3-2-3-2-3-2-3--22-----------------|
A-3-3-3-3-3-3-3-3-3-2-3-2-3-2-3--22-----------------|
E-1-1-1-1-1-1-1-1-1-0-1-0-1-0-1--00-----------------|


-------------------------------------------------------------------


riff 3

gituar 1


E--------------------5-----5------------------------|
B---------------------------------------------------|
G-------4--------5-4---5-----5----------------------|
D-5-4-2---------------------------------------------|
A---------------------------------------------------|
E---------------------------------------------------|

gituar 2


E---------------------------------------------------|
B---------------------------------------------------|
G---------------------------------------------------|
D---------------------------------------------------|
A-7-7---7----7-7----5-5---3---3-3-------------------|
E-0-0-000-00-0-0--007-7-555-555-5--55---------------|

      **  **      **               **

------------------------------------------------------------------------


riff 3 end

guitar 1


E------------|
B------------|
G------------|
D---2-2------|
A------------|
E------------|


E------------|
B------------|
G------------|
D---7-7------|
A---7-7------|
E---5-5------|


-----------------------------------------------------------------------


riff 4

both guitars

"..i'd like to try....

E---------------------------------------------------|
B---------------------------------------------------|
G--------4-------777--------------------------------|
D-2-2----4-------777----222-------------------------|
A-2-2----2-------555----222-------------------------|
E-0-0----2-------555----000-------------------------|

       *         **     **


E---------------------------------------------------|
B---------------------------------------------------|
G--------4-----777----------------------------------|
D-2-2----4-----777222-------------------------------|
A-2-2----2-----555222-------------------------------|
E-0-0----2-----555000-------------------------------|

       *       ** **

------------------------------------------------------------------------


riff 4'

guitar 1


E---------------------------------------------------|
B---------------------------------------------------|
G--------4-------777--------------------------------|
D-2-2----4-------777----222-------------------------|
A-2-2----2-------555----222-------------------------|
E-0-0----2-------555----000-------------------------|

       *         **     **

E---------------------------------------------------|
B---------------------------------------------------|
G--------4-----777----------------------------------|
D-2-2----4-----777222-------------------------------|
A-2-2----2-----555222-------------------------------|
E-0-0----2-----555000-------------------------------|

       *       ** **

guitar 2


E---------------------------------------------------|
B---------------------------------------------------|
G--------4-------777--------------------------------|
D-2-2----4-------777----222-------------------------|
A-2-2----2-------555----222-------------------------|
E-0-0----2-------555----000-------------------------|

       *         **     **


E--------------------------------------------3-3-3--|
B---------------------------------------------------|
G--------4-----777----------------------------------|
D-2-2----4-----777222-------------------------------|
A-2-2----2-----555222-------------------------------|
E-0-0----2-----555000-------------------------------|

       *       ** **

----------------------------------------------------------------------------

riff 5

guitar1


E-3-2-2---------------------3-3-3-------------------|
B-------2-2-3-3-------------------------------------|
G---------------2-2-0-0-----------------------------|
D-----------------------4-4-------------------------|
A---------------------------------------------------|
E---------------------------------------------------|


gutiar 2
E---------------------------------------------------|
B---------------------------------------------------|
G---------------------------------------------------|
D-9-9-9-9-9-9-9-9-12-12-12-5-5-5-5-9----------------|
A-9-9-9-9-9-9-9-9-10-10-10-5-5-5-5-9----------------|
E-7-7-7-7-7-7-7-7-10-10-10-3-3-3-3-7----------------|


guitar 1


E-3-2-2----------------------3-3-3------------------|
B-------2-2-3-3-------------------------------------|
G---------------2-2---------------------------------|
D-------------------4-4--2-2------------------------|
A---------------------------------------------------|
E---------------------------------------------------|


gutiar 2
E---------------------------------------------------|
B---------------------------------------------------|
G---------------------------------------------------|
D-9-9-9-9-9-9-9-9-12-12-12-5-5-5-5-9----------------|
A-9-9-9-9-9-9-9-9-10-10-10-5-5-5-5-9----------------|
E-7-7-7-7-7-7-7-7-10-10-10-3-3-3-3-7----------------|


-----------------------------------------------------------------------

riff 5'

guitar1


E-3-2-2---------------------3-3-3-------------------|
B-------2-2-3-3-------------------------------------|
G---------------2-2-0-0-----------------------------|
D-----------------------4-4-------------------------|
A---------------------------------------------------|
E---------------------------------------------------|


gutiar 2
E---------------------------------------------------|
B---------------------------------------------------|
G---------------------------------------------------|
D-9-9-9-9-9-9-9-9-12-12-12-5-5-5-5-9----------------|
A-9-9-9-9-9-9-9-9-10-10-10-5-5-5-5-9----------------|
E-7-7-7-7-7-7-7-7-10-10-10-3-3-3-3-7----------------|


guitar 1


E-3-2-2---------------------------------------------|
B-------2-2-3-3-------------------------------------|
G---------------2-2---------------------------------|
D-------------------4-4--2-2------------------------|
A---------------------------------------------------|
E---------------------------------------------------|


gutiar 2
E---------------------------------------------------|
B---------------------------------------------------|
G---------------------------------------------------|
D-9-9-9-9-9-9-9-9-12-12-12-5-5-5-5-9----------------|
A-9-9-9-9-9-9-9-9-10-10-10-5-5-5-5-9----------------|
E-7-7-7-7-7-7-7-7-10-10-10-3-3-3-3-7----------------|

---------------------------------------------------------------------------

riff 6

both guitars

E---------------------------------------------------|
B---------------------------------------------------|
G---------------------------------------------------|
D-7-7-776-6--33-3-3----2-3-2-3-2-3---55559----------|
A-7-7-777-7--33-3-3----2-3-2-3-2-3---55559----------|
E-5-5-554-4--11-1-1----0-1-0-1-0-1---33337----------|

      **     **


intro        - 1x
riff 1       - 2x
riff 2       - 1x
riff 2'      - 1x
riff 3       - 4x
riff 3 end   - 1x
riff 4       - 3x
riff 4'      - 1x
riff 5       - 1x
riff 5'      - 1x
riff 6       - 1x
riff 1       - 2x
riff 2       - 1x
riff 2'      - 1x
riff 3       - 4x
riff 3 end   - 1x
riff 4       - 3x
riff 4'      - 1x
riff 5       - 1x
riff 5'      - 1x
riff 6       - 1x
riff 4       - 3x
riff 4'      - 1x
riff 6'      - 1x

tab discription


* - palm mute
\ - slide down
h - hammer on
p - pull of





Comments


Popular Katatonia tabs & chords
Distrust Bass Tabs
O How I Enjoy The Light Chords
Consternation Tabs
Dancing December Tabs
Disposession Tabs
I Break Tabs
In The WhiteIntro Tabs
Murder Tabs
Teargas Tabs
Departer Ukulele


Song lyrics



↑ Back to top | Tablatures and chords are parodies/interpretations of the original songs. You may use it for private study, scholarship, research or language learning purposes only
© 2014 AZChords.com Contact us | Privacy policy | DMCA | Add/correct tabs | Request tabs | Top 50 tabs