>
 >
Sweet Nurse

Sweet Nurse Guitar Tabs

Katatonia - Sweet Nurse chords, tabs, tablatures, lyrics

Guitar lessons | Add/correct | Request | Top 50 tabs Artists:  A B C D E F G H I J K L M N O P Q R S T U V W X Y Z 0-9

Sweet Nurse Guitar Tabs – Katatonia

CD, Sheet music, Poster

Do you like Sweet Nurse? Share with your friends now
Tabs
KATATONIA - SWeet NuRse
                 From the Album LAST FAIR DEAL GONE DOWN 
                       Copyright 2001 PEACEVILLE
                        Version 2.0 - sept. 2001


For Questions, Comments, Newest Version, or Corrections contact

Check Out Death Warp, With More Transcriptions On It:

..  - palm mute          /  - slide up to
 \  - slide down to      ~  - vibrato
 h  - hammer on          b  - bend
 p  - pull off            Suffixes for bend
                          ph - pinch harmonic
                           f - full bend    h - half bend
*  - see comment           r - release      t - tap bend
X  - percussion mute       ~ - vibrato bend
@  - slight palm mute     () - ghost note, sustained note

Tune Guitar 1/2 step down 
            (Eb, Ab, Db, Gb, Bb, Eb)

Intro: 

|12-11h12h11----11--------------------12----------------------|
|------------13-----13\12-10-9/10~-------13-------------------|
|-------------------------------------------------12-10-10\9~-|
|-------------------------------------------------------------|
|-------------------------------------------------------------|
|-------------------------------------------------------------|
|                                                             |
|-------------------------------------------------------------|
|-------------------------------------------------------------|
|2------------------------------4------------------------5----|
|2------------------------------4------------------------5----|
|0------------------------------2------------------------3----|
|-------------------------------------------------------------|

|-------------------------------------|
|-------------------------------------|
|11-11\8-8b(9)~-----------------------|
|-------------------------------------|
|-------------------------------------|
|-------------------------------------|
|                                     | (x2) Riff 1
|-------------------------------------|
|-------------------------------------|
|---4---------------------------------|
|---4---------------------------------|
|---2---------------------------------|
|-------------------------------------|

O my sweet nurse... (2st time "You smile and...")
|---------------------------------------------------------------------|
|---------------------------------------------------------------------|
|2----------------4------------------5----------------4---------------|
|2----------------4------------------5----------------4---------------|
|0----------------2------------------3----------------2---------------|
|---------------------------------------------------------------------|
|                                                                     |
|15~--------------14~---------------12~-------------------------------|
|-----------------15--------------------------------------------------|
|---------------------------------------------------------------------|
|---------------------------------------------------------------------|
|---------------------------------------------------------------------|
|---------------------------------------------------------------------|

 So that i can ...(2st "O my sweet nurse...")
|---------------------------------------------------------------------|
|---------------------------------------------------------------------|
|2----------------4------------------5----------------4---------------|
|2----------------4------------------5----------------4---------------|
|0----------------2------------------3----------------2---------------|
|---------------------------------------------------------------------|
|                                                                     |
|15~--------------14~---------------19~-------------------------------|
|-----------------15--------------------------------------------------|
|---------------------------------------------------------------------|
|---------------------------------------------------------------------|
|---------------------------------------------------------------------|
|---------------------------------------------------------------------|
                                                            (x2) Riff 2 
  Then like a ghost...(2st time "And so i have") 
|------------------------------------------------------------|
|------------------------------------------------------------|
|---------------5-5-5-5-5-5-5--------------------------------|
|2-2-2-2-2-2-2--5-5-5-5-5-5-5--5-5-5-5-5-5-5--4-4-4-4-4-4-4--|
|2-2-2-2-2-2-2--3-3-3-3-3-3-3--5-5-5-5-5-5-5--4-4-4-4-4-4-4--|
|0-0-0-0-0-0-0-----------------3-3-3-3-3-3-3--2-2-2-2-2-2-2--|
|                                                            |
|7-7-7-7-7-7-7-7-7-7-7-7-7-7-7-------------------------------|
|------------------------------8-8-8-8-8-8-8-8-7-7-7-7-7-7-7-|
|------------------------------------------------------------|
|------------------------------------------------------------|
|------------------------------------------------------------|
|------------------------------------------------------------|

|---------------------------------------------------------------|
|---------------------------------------------------------------|
|---------------------------------------------5-5-5-5-5-5-5-5-5-|*
|2-2-2-2-2-2-2--4-4-4-4-4-4-4--5-5-5-5-5-5-5--5-5-5-5-5-5-5-5-5-|1st
|2-2-2-2-2-2-2--4-4-4-4-4-4-4--5-5-5-5-5-5-5--3-3-3-3-3-3-3-3-3-|time
|0-0-0-0-0-0-0--2-2-2-2-2-2-2--3-3-3-3-3-3-3--------------------|
|                                                               |
|-------------------------------------------------10---10-------|
|7-7-7-5-5-5-5---------------------------------12----12---12\7--|
|---------------7-7-7-7-7-7-7--4-4-4-4-4-4-4--------------------|
|---------------------------------------------------------------|
|---------------------------------------------------------------|
|---------------------------------------------------------------|  
                                                      Riff 3 (x2)
|-------------------|
|-------------------|
|7-7-7-7-7-7-7-7----|*2st
|7-7-7-7-7-7-7-7----|time with 
|5-5-5-5-5-5-5-5----|this
|-------------------|
|                   |    
|---10----10--------|
|12----12----12\7~--|
|-------------------|
|-------------------|
|-------------------|
|-------------------|

(2st time "O my sweet nurse...")
|---------------------------------------------------------------------|
|---------------------------------------------------------------------|
|2----------------4------------------5----------------4---------------|
|2----------------4------------------5----------------4---------------|
|0----------------2------------------3----------------2---------------|
|---------------------------------------------------------------------|
|                                                                     |
|15~--------------14~---------------12~-------------------------------|
|-----------------15--------------------------------------------------|
|---------------------------------------------------------------------|
|---------------------------------------------------------------------|
|---------------------------------------------------------------------|
|---------------------------------------------------------------------|

(2st time "That you rather...")
|---------------------------------------------------------------------|
|---------------------------------------------------------------------|
|2----------------4------------------5----------------4---------------|
|2----------------4------------------5----------------4---------------|
|0----------------2------------------3----------------2---------------|
|---------------------------------------------------------------------|
|                                                                     |
|15~--------------14~---------------19~-------------------------------|
|-----------------15--------------------------------------------------|
|---------------------------------------------------------------------|
|---------------------------------------------------------------------|
|---------------------------------------------------------------------|
|---------------------------------------------------------------------|
                                                            (x2) Riff 2 


  Then like a ghost...(2st time "And so i have") 
|------------------------------------------------------------|
|------------------------------------------------------------|
|---------------5-5-5-5-5-5-5--------------------------------|
|2-2-2-2-2-2-2--5-5-5-5-5-5-5--5-5-5-5-5-5-5--4-4-4-4-4-4-4--|
|2-2-2-2-2-2-2--3-3-3-3-3-3-3--5-5-5-5-5-5-5--4-4-4-4-4-4-4--|
|0-0-0-0-0-0-0-----------------3-3-3-3-3-3-3--2-2-2-2-2-2-2--|
|                                                            |
|7-7-7-7-7-7-7-7-7-7-7-7-7-7-7-------------------------------|
|------------------------------8-8-8-8-8-8-8-8-7-7-7-7-7-7-7-|
|------------------------------------------------------------|
|------------------------------------------------------------|
|------------------------------------------------------------|
|------------------------------------------------------------|

|---------------------------------------------------------------|
|---------------------------------------------------------------|
|---------------------------------------------5-5-5-5-5-5-5-5-5-|*
|2-2-2-2-2-2-2--4-4-4-4-4-4-4--5-5-5-5-5-5-5--5-5-5-5-5-5-5-5-5-|1st
|2-2-2-2-2-2-2--4-4-4-4-4-4-4--5-5-5-5-5-5-5--3-3-3-3-3-3-3-3-3-|time
|0-0-0-0-0-0-0--2-2-2-2-2-2-2--3-3-3-3-3-3-3--------------------|
|                                                               |
|-------------------------------------------------10---10-------|
|7-7-7-5-5-5-5---------------------------------12----12---12\7--|
|---------------7-7-7-7-7-7-7--4-4-4-4-4-4-4--------------------|
|---------------------------------------------------------------|
|---------------------------------------------------------------|
|---------------------------------------------------------------|  
                                                      Riff 3 (x2)
|-------------------|
|-------------------|
|7-7-7-7-7-7-7-7----|*2st
|7-7-7-7-7-7-7-7----|time with 
|5-5-5-5-5-5-5-5----|this
|-------------------|
|                   |    
|-------------------|
|5~~----------------|
|-------------------|
|-------------------|
|-------------------|
|-------------------|


                 |-------------------------------|
                 |-------------------------------|
                 |-------------------------------|
                 |2-2-2-2-2-2-2-2-2-2-2----------|
                 |2-2-2-2-2-2-2-2-2-2-2----------|
                 |0-0-0-0-0-0-0-0-0-0-0----------|
                 |                               |Riff 4
                 |-------------------------------|
                 |5~~----------------------------|
                 |-------------------------------|
                 |-------------------------------|
                 |-------------------------------|
                 |-------------------------------|



|12-11h12h11----11--------------------12----------------------|
|------------13-----13\12-10-9/10~-------13-------------------|
|-------------------------------------------------12-10-10\9~-|
|-------------------------------------------------------------|
|-------------------------------------------------------------|
|-------------------------------------------------------------|
|                                                             |
|-------------------------------------------------------------|
|-------------------------------------------------------------|
|2------------------------------4------------------------5----|
|2------------------------------4------------------------5----|
|0------------------------------2------------------------3----|
|-------------------------------------------------------------|

|-------------------------------------|
|-------------------------------------|
|11-11\8-8b(9)~-----------------------|
|-------------------------------------|
|-------------------------------------|
|-------------------------------------|
|                                     | (x2) Riff 1
|-------------------------------------|
|-------------------------------------|
|---4---------------------------------|
|---4---------------------------------|
|---2---------------------------------|
|-------------------------------------|


 
  Then like a ghost...(2st time "And so i have") 
|------------------------------------------------------------|
|------------------------------------------------------------|
|---------------5-5-5-5-5-5-5--------------------------------|
|2-2-2-2-2-2-2--5-5-5-5-5-5-5--5-5-5-5-5-5-5--4-4-4-4-4-4-4--|
|2-2-2-2-2-2-2--3-3-3-3-3-3-3--5-5-5-5-5-5-5--4-4-4-4-4-4-4--|
|0-0-0-0-0-0-0-----------------3-3-3-3-3-3-3--2-2-2-2-2-2-2--|
|                                                            |
|7-7-7-7-7-7-7-7-7-7-7-7-7-7-7-------------------------------|
|------------------------------8-8-8-8-8-8-8-8-7-7-7-7-7-7-7-|
|------------------------------------------------------------|
|------------------------------------------------------------|
|------------------------------------------------------------|
|------------------------------------------------------------|

|---------------------------------------------------------------|
|---------------------------------------------------------------|
|---------------------------------------------5-5-5-5-5-5-5-5-5-|*
|2-2-2-2-2-2-2--4-4-4-4-4-4-4--5-5-5-5-5-5-5--5-5-5-5-5-5-5-5-5-|1st
|2-2-2-2-2-2-2--4-4-4-4-4-4-4--5-5-5-5-5-5-5--3-3-3-3-3-3-3-3-3-|time
|0-0-0-0-0-0-0--2-2-2-2-2-2-2--3-3-3-3-3-3-3--------------------|
|                                                               |
|-------------------------------------------------10---10-------|
|7-7-7-5-5-5-5---------------------------------12----12---12\7--|
|---------------7-7-7-7-7-7-7--4-4-4-4-4-4-4--------------------|
|---------------------------------------------------------------|
|---------------------------------------------------------------|
|---------------------------------------------------------------|  
                                                      Riff 3 (x2)
|------|
|------|
|------|*2st
|2-----|time with 
|2-----|this
|0-----|
|      |   
|------|
|5~~---|
|------|
|------|
|------|
|------|                Fade out  End.



Check Out DEATH WARP, With More Transcriptions On It:

Check Out 's Web Page, With More Transcriptions On It:
               /index.html





Comments


Popular Katatonia tabs & chords
Distrust Bass Tabs
For My Demons Bass Tabs
12 Tabs
Disposession Tabs
For My Demons Tabs
Had To Tabs
Last Resort Tabs
Strained Tabs
Teargas Tabs
O How I Enjoy The Light Ukulele


Song lyrics



↑ Back to top | Tablatures and chords are parodies/interpretations of the original songs. You may use it for private study, scholarship, research or language learning purposes only
© 2014 AZChords.com Contact us | Privacy policy | DMCA | Add/correct tabs | Request tabs | Top 50 tabs