» » »

Katatonia, For My Demons Tabs (ver.1)

Artists:  A B C D E F G H I J K L M N O P Q R S T U V W X Y Z # 

For My Demons Tabs (ver.1)

Katatonia Tabs
 Rating:
4.2/5 (5 votes)
For My Demons lessons Tabs too difficult? Try these video lessons and learn fast
                Katatonia - For my demons

and corrected by THOMAS C

The first string is tuned down (tune -1)

Guitar 1
Clean
Riff 1
|-------------|----------------------------------------------------------|
|--played once|----------------------------------------------------------|
|-------------|----------------------------------------------------------|
|-7-------9---|----10-------0---10---0---10---0------7---0---9---0-------|
|-0-------0---|-----0------10----0---8----0---7------0---7---0---7-------|
|-------------|----------------------------------------------------------|
  



Electric
Riff 2a
|----------------------------------------------------------------------------|
|----------------------------------------------------------------------------|
|----------------------------------------------------------------------------|
|-7-7-7-7-7-7-5/7-7-7-7-7-5/7-7-7-5-5-5-5-5/7-0-0-0-0-0-0-0-0-0-0------------|
|-7-7-7-7-7-7-5/7-7-7-7-7-5/7-7-7-5-5-5-5-5/7-0-0-0-0-0-0-0-0-0-0------------|
|-7-7-7-7-7-7-5/7-7-7-7-7-5/7-7-7-5-5-5-5-5/7-0-0-0-0-0-0-0-0-0-0------------|


|----------------------------------------------------------------------------|
|----------------------------------------------------------------------------|
|----------------------------------------------------------------------------|
|-7-7-7-7-7-7-5/7-7-7-7-7-5/7-7-7-5-5-5-5-5/7-0-0-0-0-0-0--------------------|
|-7-7-7-7-7-7-5/7-7-7-7-7-5/7-7-7-5-5-5-5-5/7-0-0-0-0-0-0--------------------|
|-7-7-7-7-7-7-5/7-7-7-7-7-5/7-7-7-5-5-5-5-5/7-0-0-0-0-0-0-3*3*3*3*-----------|


Riff 2b-
|------------------------------------------------------------------|
|------------------------------------------------------------------|
|------------------------------------------------------------------|
|-7-7-7-7-7-7-7-7-7-7-7-7-7-7-7-5-5-5-5-5/7-0-0-0-0-0-0-0-0-0-0----|
|-7-7-7-7-7-7-7-7-7-7-7-7-7-7-7-5-5-5-5-5/7-0-0-0-0-0-0-0-0-0-0----|
|-7-7-7-7-7-7-8-7-7-7-7-8-7-7-7-5-5-5-5-5/7-0-0-0-0-0-0-0-0-0-0----|
  

|------------------------------------------------------------------|
|------------------------------------------------------------------|
|------------------------------------------------------------------|
|-7-7-7-7-7-7-7-7-7-7-7-7-7-7-7-5-5-5-5-5/7-0-0-0-0-0-0------------|
|-7-7-7-7-7-7-7-7-7-7-7-7-7-7-7-5-5-5-5-5/7-0-0-0-0-0-0------------|
|-7-7-7-7-7-7-8-7-7-7-7-8-7-7-7-5-5-5-5-5/7-0-0-0-0-0-0-3*3*3*3*---|
  


Clean
Riff 3
|---------------------|
|---------------------|
|---------------------|
|---7---7---7---7-----|
|-0---0---0---0---...-|
|---------------------|

Riff 4a
|------------------------------------------------------------|
|------------------------------------------------------------|
|------------------------------------------------------------|
|-5-5-5-5-*--0----8-8-8-8-*-*-10-10-10\8-8/10-10\8-----------|
|-3-3-3-3-*--0----5-5-5-5-*-*--7--7--7\5-5/-7--7\5-----------|
|-3-3-3-3-*--0----5-5-5-5-*-*--7--7--7\5-5/-7--7\5-----------|



Riff 4b
|---------------------------------------------------|
|---------------------------------------------------|
|---------------------------------------------------|
|-5-5-5-5-*--1----4--0------------------------------|
|-3-3-3-3-*--1----2--0--0-2/\2--0--0-2-0-2-0--------|
|-3-3-3-3-*--1----2--0--0-2/\2--0--0-2-0-2-0--------|

Guitar 2
Electric
Played on riff 2a and 2b
|-----------------------------------------------------------------|
|-------------------3-3-3-----5-5-------------------3-3-3---------|
|-------4-4-4-------------2h5-----------4-4-4-------------2-2-5-5-|
|-2-2-2-------3-3-3---------------2-2-2-------3-3-3---------------|
|-----------------------------------------------------------------|
|-----------------------------------------------------------------|


Also played on riff 2a and 2b
|---------------------------------|
|-5-5-5-4-4-4---------------------|
|-------------4-4-4-5-5-5-5-5-5-5-|
|---------------------------------|
|---------------------------------|
|---------------------------------|


For song structure listen to the song how often you have to play the riffs!
            
Submit corrections

comments powered by Disqus
↑ Back to top | Katatonia Tabs for For My Demons. Lyrics for acoustic guitar and electric guitar. Tablatures and chords are parodies/interpretations of the original songs. You may use it for private study, scholarship, research or language learning purposes only