» » »

No Good Can Come Of This Bass tabs (ver.1)

Artists:  A B C D E F G H I J K L M N O P Q R S T U V W X Y Z # 

No Good Can Come Of This Bass tabs (ver.1)

Katatonia
Rating:
0/5 (0 votes)

Hard to play? Try these video lessons and learn fast.
                tune down

F#||-------|-------||-------------------------|--------------------------||----|
C#||*------|------*||*------------------------|----------------4--4--5--*||----|
G#||*------|------*||*------------------------|-------------------------*||----|
D#||-------|-------||---0--0----0--0----0--0--|----3--3--2--2------------||----|


                                                               
----||-------|------|------|-------||-------------------------|
----||*------|------|------|------*||*------------------------|
----||*------|------|------|------*||*------------------------|
----||-------|------|------|-------||---0--0----0--0----0--0--|


                                                                         3x
-----------------------|------------------------|------------------------||
-----------------------|------------------------|-----------------------*||
-----------------------|------------------------|-----------------------*||
----0--0------0--0--0--|--0--0----0--0----0--0--|----0--0------0--0--0---||


                                                                      
------|------||---------------------------|--------------------------|
------|------||*--------------------------|--------------------------|
------|------||*--2--2--2--2--2--2--2--2--|--2--2--2--2--2--2--2--2--|
------|------||---------------------------|--------------------------|


                                                      2x
--------------------------|---------------------------||
--------------------------|--------------------------*||
--0--0--0--0--0--0--0--0--|--3--3--3--3--3--3--3--3--*||
--------------------------|---------------------------||


                                                      
--------------------------|--------------------------|
--------------------------|--------------------------|
--2--2--2--2--2--2--2--2--|--2--2--2--2--2--2--2--2--|
--------------------------|--------------------------|


                                                                    
--------------------------|--------------------------|------|------|
--------------------------|--------------------------|------|------|
--0--0--0--0--0--0--0--0--|--3--3--3--3--3--3--3--3--|------|------|
--------------------------|--------------------------|------|------|


                                                     3x
|-------------------------|--------------------------||
|*------------------------|----------------4--4--5--*||
|*------------------------|-------------------------*||
|---0--0----0--0----0--0--|----3--3--2--2------------||


                                                                           
-------------------------|-----------------------|------------------------|
*------------------------|-----------------------|------------------------|
*------------------------|-----------------------|------------------------|
---0--0----0--0----0--0--|----0--0------0--0--0--|--0--0----0--0----0--0--|


                        3x                                        
------------------------||-------|-------||----------------------|
-----------------------*||*------|------*||*---------------------|
-----------------------*||*------|------*||*---------------------|
----0--0------0--0--0---||-------|-------||---0------3------2----|


                    3x                                                       
--------------------||---------------------------|--------------------------|
-------------------*||*--------------------------|--------------------------|
-------------------*||*--2--2--2--2--2--2--2--2--|--2--2--2--2--2--2--2--2--|
----1---------------||---------------------------|--------------------------|


                                                      2x
--------------------------|---------------------------||
--------------------------|--------------------------*||
--0--0--0--0--0--0--0--0--|--3--3--3--3--3--3--3--3--*||
--------------------------|---------------------------||


                                                      
--------------------------|--------------------------|
--------------------------|--------------------------|
--2--2--2--2--2--2--2--2--|--2--2--2--2--2--2--2--2--|
--------------------------|--------------------------|


                                                      
--------------------------|--------------------------|
--------------------------|--------------------------|
--0--0--0--0--0--0--0--0--|--3--3--3--3--3--3--3--3--|
--------------------------|--------------------------|


                                                        
|---------------------------|--------------------------|
|*--------------------------|--------------------------|
|*--2--2--2--2--2--2--2--2--|--2--2--2--2--2--2--2--2--|
|---------------------------|--------------------------|


                                                      2x
--------------------------|---------------------------||
--------------------------|--------------------------*||
--0--0--0--0--0--0--0--0--|--3--3--3--3--3--3--3--3--*||
--------------------------|---------------------------||


                                                      
--------------------------|--------------------------|
--------------------------|--------------------------|
--2--2--2--2--2--2--2--2--|--2--2--2--2--2--2--2--2--|
--------------------------|--------------------------|


                                                                     
--------------------------|--------------------------|------|------||
--------------------------|--------------------------|------|------||
--0--0--0--0--0--0--0--0--|--3--3--3--3--3--3--3--3--|------|------||
--------------------------|--------------------------|------|------||
            
Hard to play? Try these video lessons and learn fast. | Correct




comments powered by Disqus
↑ Back to top | Tablatures and chords are parodies/interpretations of the original songs. You may use it for private study, scholarship, research or language learning purposes only