» » »

Katatonia, Leaders Tabs (ver.1)

Artists:  A B C D E F G H I J K L M N O P Q R S T U V W X Y Z # 

Leaders Tabs (ver.1)

Katatonia Tabs
 Rating:
4/5 (4 votes)
Leaders lessons Tabs too difficult? Try these video lessons and learn fast
                Katatonia
The Great Cold Distance
Dropped Bflat (or A#)

*Note* (This tab is virtually perfect, except for some timing issues with
the lead and rhythm on the chorus parts, just know that's the lead guitar 
and play along with the song for the timing, other than that enjoy)*


Intro W/ Tremelo
C |-------|
G |-------|
Eb|-7---8-|
Bb|-0---0-| 2x
F |-------|
Bb|-------|



CHORUS RIFF(s)
C |------------------------------------------|
G |------------------------------------------|
Eb|------------------------------------------|
Bb|-5/7-8/7-----8---8---5/7-7/5------8---8---| 1x
F |-3/5-6/5--0--5-0-5---3/5-5/3--0---5-0-5---|
Bb|----------0----0--------------0-----0-----|
  |                                          |
C |------------------------------------------|
G |------------------------------------------|
Eb|-7-------8----------7---------8-----------|
Bb|-0-------0----------0---------0-----------|
F |------------------------------------------|
Bb|------------------------------------------|

C |----------------------------------------------|
G |----------------------------------------------|
Eb|----------------------------------------------|
Bb|-5/7-8/7-----8---8---5/7-7/5------8-----------| 1x
F |-3/5-6/5--0--5-0-5---3/5-5/3--0---5-0-5/6/5---|
Bb|----------0----0--------------0-----0---------|
  |                                              |
C |----------------------------------------------|
G |----------------------------------------------|
Eb|-7--------8----------7--------8---------------|
Bb|-0--------0----------0--------0---------------|
F |----------------------------------------------|
Bb|----------------------------------------------|

C |---------------------------------------|
G |---------------------------------------|
Eb|---------------------------------------|
Bb|-8-7-----8---8-----10-10---------------| 1x
F |-6-5--0--5-0-5---0-6--6--0--1-1--0-1-0-|
Bb|------0----0-----0-------0--1-1--0-1-0-|
  |                                       |
C |---------------------------------------|
G |---------------------------------------|
Eb|-7----8----------7-------8-------------|
Bb|-0----0----------0-------0-------------|
F |---------------------------------------|
Bb|---------------------------------------|


C |----------------------------------------------|
G |----------------------------------------------|
Eb|----------------------------------------------|
Bb|-5/7-8/7-----8---8---5/7-7/5------8-----------| 1x
F |-3/5-6/5--0--5-0-5---3/5-5/3--0---5-0-5/6/5---|
Bb|----------0----0--------------0-----0---------|
  |                                              |
C |-18-17------------18--------------------------|
G |------------------------15-16-----------------|
Eb|----------------------------------------------|
Bb|----------13-12--------12---------------------|
F |----------------------------------------------|
Bb|----------------------------------------------|

C |---------------------------------------|
G |---------------------------------------|
Eb|---------------------------------------|
Bb|-8-7-----8---8-----10-10---------------| 1x
F |-6-5--0--5-0-5---0-6--6--0--1-1--0-1-0-|
Bb|------0----0-----0-------0--1-1--0-1-0-|
  |                                       |
C |---------------------------------------|
G |-15--------16-----------15-------------|
Eb|---------------------------------------|
Bb|---------------------------------------|
F |---------------------------------------|
Bb|---------------------------------------|

C |----------------------------------------------|
G |----------------------------------------------|
Eb|----------------------------------------------|
Bb|-5/7-8/7-----8---8---5/7-7/5------8-----------| 1x
F |-3/5-6/5--0--5-0-5---3/5-5/3--0---5-0-5/6/5---|
Bb|----------0----0--------------0-----0---------|
  |                                              |
C |-18-17------------18--------------------------|
G |------------------------15-16-----------------|
Eb|----------------------------------------------|
Bb|----------13-12--------12---------------------|
F |----------------------------------------------|
Bb|----------------------------------------------|

C |---------------------------------------|
G |---------------------------------------|
Eb|---------------------------------------|
Bb|-8-7-----8---8-----10-10---------------| 1x
F |-6-5--0--5-0-5---0-6--6--0--1-1--0-1-0-|
Bb|------0----0-----0-------0--1-1--0-1-0-|
  |                                       |
C |---------------------------------------|
G |-15--------16-----------15-------------|
Eb|---------------------------------------|
Bb|---------------------------------------|
F |---------------------------------------|
Bb|---------------------------------------|

C |----------------------------------------------|
G |----------------------------------------------|
Eb|----------------------------------------------|
Bb|-5/7-8/7-----8---8---5/7-7/5------8-----------| 1x
F |-3/5-6/5--0--5-0-5---3/5-5/3--0---5-0-5/6/5---|
Bb|----------0----0--------------0-----0---------|
  |                                              |
C |----------------------------------------------|
G |----------------------------------------------|
Eb|-7--------8----------7--------8---------------|
Bb|-0--------0----------0--------0---------------|
F |----------------------------------------------|
Bb|----------------------------------------------|

C |---------------------------------------|
G |---------------------------------------|
Eb|---------------------------------------|
Bb|-8-7-----8---8-----10-10---------------| 1x
F |-6-5--0--5-0-5---0-6--6--0--1-1--0-1-0-|
Bb|------0----0-----0-------0--1-1--0-1-0-|
  |                                       |
C |---------------------------------------|
G |---------------------------------------|
Eb|-7----8----------7-------8-------------|
Bb|-0----0----------0-------0-------------|
F |---------------------------------------|
Bb|---------------------------------------|




VERSE
C |--------------------------------------------------------|
G |--------------------------------------------------------|
Eb|------------------------------------------------5-7-5---|
Bb|--------------------------------------------5-6-------6-|
F |-------5-------5-------5--------3-------3---------------|
Bb|-0h1p0---0h1p0---0h1p0----0h1p0---0h1p0-----------------|

C |----------------------------------------------------|
G |----------------------------------------------------|
Eb|----------------------------------------------------|
Bb|--------------------------------------------------5-|
F |-------5-------5-------5--------3-------3---5h6---6-|
Bb|-0h1p0---0h1p0---0h1p0----0h1p0---0h1p0---------0---|

C |----------------------------------------------------------------|
G |----------------------------------------------------------------|
Eb|------------------------------------------------5-7-5-----------|
Bb|--------------------------------------------5-6-------6-5-6-5---|
F |-------5-------5-------5--------3-------3---------------------8-|
Bb|-0h1p0---0h1p0---0h1p0----0h1p0---0h1p0-------------------------|

C |--------------------------------------------------------|
G |--------------------------------------------------------|
Eb|------------------------------------------------5-7-5---|
Bb|--------------------------------------------5-6-------6-|
F |-------5-------5-------5--------3-------3---------------|
Bb|-0h1p0---0h1p0---0h1p0----0h1p0---0h1p0-----------------|

C |----------------------------------------------------|
G |----------------------------------------------------|
Eb|----------------------------------------------------|
Bb|--------------------------------------------------5-|
F |-------5-------5-------5--------3-------3---5h6---6-|
Bb|-0h1p0---0h1p0---0h1p0----0h1p0---0h1p0---------0---|

C |----------------------------------------------------------------|
G |----------------------------------------------------------------|
Eb|------------------------------------------------5-7-5-----------|
Bb|--------------------------------------------5-6-------6-5-6-5---|
F |-------5-------5-------5--------3-------3---------------------8-|
Bb|-0h1p0---0h1p0---0h1p0----0h1p0---0h1p0-------------------------|

C |--------------------------------------------------------|
G |--------------------------------------------------------|
Eb|------------------------------------------------5-7-5---|
Bb|--------------------------------------------5-6-------6-|
F |-------5-------5-------5--------3-------3---------------|
Bb|-0h1p0---0h1p0---0h1p0----0h1p0---0h1p0-----------------|



PreChorus #1
C |-----------------------------|
G |-----------------------------|
Eb|-----------------------------|
Bb|-0-0-0-0---0-0-0-0---0-0-0-0-| 3x
F |-0-0-0-0---0-0-0-0---0-0-0-0-|
Bb|-0-0-0-0---0-0-0-0---0-0-0-0-|

C |-----------------------------|
G |-----------------------------|
Eb|-----------------------------|
Bb|-0-0-0-0---0-0-0-0---0-0-0-1-| 1x
F |-0-0-0-0---0-0-0-0---0-0-0-1-|
Bb|-0-0-0-0---0-0-0-0---0-0-0-1-|




CHORUS




Post-Chorus
C |-----------------------------------------------------------------|
G |-----------------------------------------------------------------|
Eb|-----------------------------------------------------------------|
Bb|-0-1-0------0-1-0------0-1-0--------0-1-0-----0-1-0-----0-1-0----|
F |-0-1-0--5*--0-1-0--5*--0-1-0--5*----0-1-0--3--0-1-0--3--0-1-0--3-|
Bb|-0-1-0------0-1-0------0-1-0--------0-1-0-----0-1-0-----0-1-0----|

C |----------------------------------------------------------------|
G |----------------------------------------------------------------|
Eb|----------------------------------------------------------------|
Bb|-0-1-0------0-1-0------0-1-0--------0-5-0-5---0-5-0-5---0-5-0-1-|
F |-0-1-0--5*--0-1-0--5*--0-1-0--5*----0-5-0-5---0-5-0-5---0-5-0-1-|
Bb|-0-1-0------0-1-0------0-1-0--------0-5-0-5---0-5-0-5---0-5-0-1-|




VERSE



Pre-Chorus #2
C |--------------------------------------|
G |--------------------------------------|
Eb|---------------7------8------7------8-|
Bb|-(long Pause)--0------0------0------0-|
F |--------------------------------------|
Bb|--------------------------------------|



CHORUS



POST-CHORUS


End.
            
Submit corrections

comments powered by Disqus
↑ Back to top | Katatonia Tabs for Leaders. Lyrics for acoustic guitar and electric guitar. Tablatures and chords are parodies/interpretations of the original songs. You may use it for private study, scholarship, research or language learning purposes only