» » »

Katatonia, Last Resort Tabs (ver.1)

Artists:  A B C D E F G H I J K L M N O P Q R S T U V W X Y Z # 

Last Resort Tabs (ver.1)

Katatonia Tabs
 Rating:
4/5 (4 votes)
Last Resort lessons Tabs too difficult? Try these video lessons and learn fast
                ################################################################
# The following is the author's own interpretation of the song #
# to be used for studying or private use only. Downloaded from #
# Home of the 60 minute fretboard memory technique. You'll     #
# memorise ALL the notes and positions on the fretboard in 60  #
################################################################
 Title:  Last Resort
 Riff 1
 clean tone let ring
 guitar 1
 |---------------------------------------------|
 |---------------------------------------------|
 |-------4----5--------5-------4---------4-----|
 |-----2---2------2----------2---------2---2---|
 |--0---------------0--------------------------|
 |------------3------------2------2-3----------|

 guitar 2 (light distortion)

 |------------------------------------|
 |--10~~~~~~~--10/5--5~~~~--6~~~~~----|
 |------------------------------------|
 |------------------------------------|
 |------------------------------------|
 |------------------------------------|


 Riff 2

 distortion

 |---------------------------|----------------------------------------------|
 |---------------------------|----------------------------------------------|
 |--4-4-4-4-4-4-4------------|----------------------------------------------|
 |--4-4-4-4-4-4-4---5-5-5~---|----------------------------------------------|  gtr1
 |--2-2-2-2-2-2-2---5-5-5~---|----------------------------------------------|
 |------------------3-3-3~---|-2--3--2--3-2-3-2~~~---2--3--2--3--2-3-2~~~~--|
                             |                                              |
                             |----------------------------------------------|
                             |----------------------------------------------|
                             |-6--7--6--7-6-7-6~~~---6--7--6--7--6-7-6~~~~--|
                             |----------------------------------------------|   gtr2
                             |----------------------------------------------|
                             |----------------------------------------------|

 And here the air that I .....enter life of what's still here
                              close the door away from near

 Shrouded in autumn's graven...thought the bridge was over now
                                lost it's track astray somehow
 |------------------------------------------------------------------|
 |------------------------------------------------------------------|
 |--4-4-4-4-4-4-2---------------------------------------------------|
 |--4-4-4-4-4-4-2--5/-----------------------------------------------|
 |--2-2-2-2-2-2-0--5/-----------------------------------------------|
 |-----------------3/-----------------------------------------------|

 Who's painting my life...

 Interlude
 this part is very mixed up!

 gtr1
 |------------------------------------------------------------------------------------|
 |-------11h12p11~~------------10h11p10~~--------7h8p7~~---------11h12p9h10~~~--------|
 |------------------------------------------------------------------------------------|
 |------------------------------------------------------------------------------------|
 |-2--2--------------2--2-----------------2--2------------2--2------------------------|
 |-0--0--------------0--0-----------------0--0------------0--0------------------------|

 gtr2
 |------------------------------------------------------------------------------------|
 |-------10h11p10~~-------------------------------------------------------------------|
 |--------------------------11h12p11~~-----------8h9p8-------------12p9h10~~~---------|
 |------------------------------------------------------------------------------------|
 |-2--2--------------2--2-----------------2--2------------2--2------------------------|
 |-0--0--------------0--0-----------------0--0------------0--0------------------------|


 ----------------------------------
            
Submit corrections

comments powered by Disqus
↑ Back to top | Katatonia Tabs for Last Resort. Lyrics for acoustic guitar and electric guitar. Tablatures and chords are parodies/interpretations of the original songs. You may use it for private study, scholarship, research or language learning purposes only