» » »

Distrust Bass tabs (ver.1)

Artists:  A B C D E F G H I J K L M N O P Q R S T U V W X Y Z # 

Distrust Bass tabs (ver.1)

Katatonia
Rating:
0/5 (0 votes)

Hard to play? Try these video lessons and learn fast.
                played with a High C tuning on five string bass.

C------------------------------------------------------------------|
G----------4-4-3-3---------4-4-3-3---------4-4-3-3---------4-4-3-3-|
D-1-1-4-4-1-------1-1-4-4-1-------1-1-4-4-1-------1-1-4-4-1--------|
A------------------------------------------------------------------|
E------------------------------------------------------------------|


(Chorus)
C------------------------------------------------------------------|
G-4-4-4-3-3-3-3-3-6-6-6-6-6-6-6-6-4-4-4-3-3-3-3-1-3-3-3-3-3-3-3-3--|
D------------------------------------------------------------------|
A------------------------------------------------------------------|
E------------------------------------------------------------------|

C------------------------------------------------------------------|
G-4-4-4-3-3-3-3-3-6-6-6-6-6-6-6-6-4-4-4-3-3-3-3-1-3-3-3-3-3-3-3-3--|
D----------------------------------------------------------------1-|
A------------------------------------------------------------------|
E------------------------------------------------------------------|
(end)

C------------------------------------------------------------------|
G----------4-4-3-3---------4-4-3-3---------4-4-3-3---------4-4-3-3-|
D-1-1-4-4-1-------1-1-4-4-1-------1-1-4-4-1-------1-1-4-4-1--------|
A------------------------------------------------------------------|
E------------------------------------------------------------------|


(Chorus)
C------------------------------------------------------------------|
G-4-4-4-3-3-3-3-3-6-6-6-6-6-6-6-6-4-4-4-3-3-3-3-1-3-3-3-3-3-3-3-3--|
D------------------------------------------------------------------|
A------------------------------------------------------------------|
E------------------------------------------------------------------|

C------------------------------------------------------------------|
G-4-4-4-3-3-3-3-3-6-6-6-6-6-6-6-6-4-4-4-3-3-3-3-1-3-3-3-3-3-3-3-3--|
D----------------------------------------------------------------1-|
A------------------------------------------------------------------|
E------------------------------------------------------------------|
(end)

(bridge)
C-------------------------------------------------------------------|
G-4-4-4-1-1-1-1-1-3-3-3-3-3-3-3-3-4-4-4-1-1-1-1-3-3-3-3-3-3-3-3-4-4-|
D-------------------------------------------------------------------|
A-------------------------------------------------------------------|
E-------------------------------------------------------------------|

C-------------------------------------------------------------------|
G-4-1-1-1-1-3-3-3-3-3-3-3-3-4-4-4-1-1-1-1-3-3-3-3-3-3-3-3-4-4-4-1-1-|
D-------------------------------------------------------------------|
A-------------------------------------------------------------------|
E-------------------------------------------------------------------|

C---------------------------------------------------------------------|
G-1-1-3-3-3-3-3-3-3-3-4-4-4-1-1-1-1-3-3-3-3-3-3-3-3-4-4-4-1-1-1-1-3-3-|
D---------------------------------------------------------------------|
A---------------------------------------------------------------------|
E---------------------------------------------------------------------|

C----------------------------------------------|
G-3-3-3-3-3-3-4-4-4-1-1-1-1-3-3-3-3-3-3-3-3-3--|
D--------------------------------------------1-|
A----------------------------------------------|
E----------------------------------------------|
(bridge end)

C-------------------------------------------------------------------|
G----------4-4-3-3---------4-4-3-3---------4-4-3-3---------4-4-3-3--|
D-1-1-4-4-1-------1-1-4-4-1-------1-1-4-4-1-------1-1-4-4-1-------1-|
A-------------------------------------------------------------------|
E-------------------------------------------------------------------|
            
Hard to play? Try these video lessons and learn fast. | Correct




comments powered by Disqus
↑ Back to top | Tablatures and chords are parodies/interpretations of the original songs. You may use it for private study, scholarship, research or language learning purposes only