» » »

Brave Tabs (ver.1)

Artists:  A B C D E F G H I J K L M N O P Q R S T U V W X Y Z # 

Brave Tabs (ver.1)

Katatonia
Rating:
0/5 (0 votes)

Hard to play? Try these video lessons and learn fast.
                          Brave- Katatonia
-------------------------------------------------------------------------------
this is not 100% right but still this sounds very good, i made this tab with 
standar tunning but i think 
they played it in another tuning...



Tuning:standar
 

       riff A x4        
e|---------------------------|
B|---------------------------|
G|-13-13-13-11-11-8888888888-| guitar1
D|-13-13-13-11-11-8888888888-|
A|-11-11-11-9--9--6666666666-|
E|---------------------------|

e|---------------------------|
B|---------------------------|
G|-11-11-11-11-11-8888888888-|
D|-11-11-11-11-11-8888888888-| guitar2
A|-9--9--9--9--9--6666666666-|
E|---------------------------|


      complement of riff A 
e|---------------------------------------------------------------------------|
B|---------------------------------------------------------------------------|
G|-13-13-13-13-13-11-11-11-11-11-11-11-11-11-11-11-10-10-10-10-10-10---------| guitar1
D|-13-13-13-13-13-11-11-11-11-11-11-11-11-11-11-11-10-10-10-10-10-10---------|
A|-11-11-11-11-11-9--9--9--9--9--9--9--9--9--9--9--8--8--8--8--8--8----------|
E|---------------------------------------------------------------------------|

e|---------------------------------------------------------------------------|
B|---------------------------------------------------------------------------|
G|-11-11-11-11-11-10-10-10-10-10-10-10-10-10-10-10-10-10-10-10-10-10---------| guitar 2
D|-11-11-11-11-11-10-10-10-10-10-10-10-10-10-10-10-10-10-10-10-10-10---------|
A|-9--9--9--9--9--8--8--8--8--8--8--8--8--8--8--8--8--8--8--8--8---8---------|
E|---------------------------------------------------------------------------|

    riff B x1

e|---------------------------------------------------------------------------|
B|---------------------------------------------------------------------------|
G|-3333333333333333333333388888810-10-10-10-10-10-10-10-10-10-10-------------|
D|-444444444444444444444446666668--8--8--8--8--8--8--8--8--8--8--------------|guitar 1
A|---------------------------------------------------------------------------|
E|---------------------------------------------------------------------------|

e|---------------------------------------------------------------------------|
B|---------------------------------------------------------------------------|
G|-88888888888888888888888-11-11-11-11-11-11-13-13-13-13-13-13-13-13-13------|guitar 2
D|-88888888888888888888888-11-11-11-11-11-11-13-13-13-13-13-13-13-13-13------|
A|-66666666666666666666666-9--9--9--9--9--9--11-11-11-11-11-11-11-11-11------|
E|---------------------------------------------------------------------------|
 
again riff A and B
  

   riff C x2

(till last time u play this riff)

guitar 1
e|--------------------------------------------------------------------------------------------|
B|-10h9-7--7-------------10h9-7--7-------------10h11p10-----------------12-12-12~12h14-11(/18)|
G|----------6--6-6--66------------6--6~--66------------10h11--11-10-10h8----------------------|
D|--------------------7--------------------7--------------------------------------------------|
A|--------------------------------------------------------------------------------------------|
E|--------------------------------------------------------------------------------------------|


e|---------------------------------------------------------------------------|
B|--------twice--------------and then-----twice------------------------------|
G|----------------------------------------3-3--------------------------------|guitar 2
D|6--6-6-6-6--66-7-7------------------2-2-3-3-6----6-----(2)-----------------|
A|4--4-4-4-4--44-7-7------------------2-2-1-1-6----6-----(2)-----------------|
E|4--4-4-4-4--44-5-5------------------0-0-----4----4-----(0)-----------------|


     

  riff D x18


(till last time u play this riff)

e|-h18----h18----h18---h18---h14---h14---h14---h14---h13---h13---h13--h13---h14---h14---h16
B|----h16----h16----h16---h16---h12---h12---h12---h12---h11---h11--h11---h11---h12---h12---
G|----------------------------------------------------------------------------------------- 
D|-----------------------------------------------------------------------------------------
A|-----------------------------------------------------------------------------------------
E|-----------------------------------------------------------------------------------------

 ---h16---------|
 h14---h14-(16)-|
 ---------------| guitar 1
 ---------------|
 ---------------|
 ---------------|

      
   riff D2 x2  this is a very long riff!

e|---------------------------------------------------------------------------|
B|---------------------------------------------------------------------------|
G|8888888888888888888888888888888888-------------------------------------8---|
D|8888888888888888888888888888888888999999999999999999999988888888888----8---|guitar 2
A|6666666666666666666666666666666666999999999999999999999988888888888----6---|
E|----------------------------------777777777777777777777766666666666--------|


   

     riff E1 x1                                   riff E2 x5

e|---------------------------------------|------------------------------------|
B|---------------------------------------|------------------------------------|
G|---------------------------------------|------------------------------------|
D|--9---9--9--9--9--9--9--9--9--9--6-4---|--9--9--6-4-------------------------|guitar 1
A|-6---6--6--6--6--6--6--6--6--6--6-6----|-6--6--6-6--------------------------|
E|0---0--0--0--0--0--0--0--0--0--0-------|0--0--0-----------------------------|


riff E3 x6
e|-------------------------|
B|-------------------------|
G|8---8---8----3-----------|guitar2
D|8---8---6---4------------|
A|6---6---6--6-------------|
E|-------------------------|

and finally play riff A,B and C.


| /  slide up
| \  slide down
| h  hammer-on
| p  pull-off
| ~  vibrato
| +  harmonic
| x  Mute note
===============================================================================
            
Hard to play? Try these video lessons and learn fast. | Correct




comments powered by Disqus
↑ Back to top | Tablatures and chords are parodies/interpretations of the original songs. You may use it for private study, scholarship, research or language learning purposes only