» » »

Kataklysm, It Turns To Rust Tabs (ver.2)

Artists:  A B C D E F G H I J K L M N O P Q R S T U V W X Y Z # 

It Turns To Rust Tabs (ver.2)

Kataklysm Tabs
Rating:
0/5 (0 votes)
It Turns To Rust lessons Tabs too difficult? Try these video lessons and learn fast
                It Turns to Rust


Drop B tuning


(0:00 - 0:25)
|-----------------------------------|
|-----------------------------------|
|-----------------------------------|
|0-----7-6~--------1-------3--------|
|0----------33-55--1-1-1-1-3-3-3-3--|
|0-----------------1-1-1-1-3-3-3-3--|

|-----------------------------------|
|-----------------------------------|
|-----------------------------------|
|0-----7-6~--------3-------5--------|
|0----------33-55--3-3-3-3-5-5-5-5--|
|0-----------------3-3-3-3-5-5-5-5--|


(0:26 - 0:43)
|-----------------------------------------------------------------|
|-----------------------------------------------------------------|
|-----------------------------------------------------------------|
|3---------------3---------------3---------------5----------------|
|3-000-000-00----3-000-000-00----3-000-000-00----5-555-553-33-----|
|3-000-000-00320-3-000-000-00320-3-000-000-00320-5-555-553-33320--|


(0:44 - 1:00)
|------------------------------------------------------------------------|
|------------------------------------------------------------------------|
|------------------------------------------------------------------------|
|------------------------------------------------------------------------|
|1-0----3-6-5-3-1-0----3----5-1----1-0----3-6-5-3-1-0--1111113333333311--|
|1-0-00-3-6-5-3-1-0-00-3-00-5-1-00-1-0-00-3-6-5-3-1-0--1111113333333311--|


(1:01 - 1:17)
|------------------------------------------------------------|
|------------------------------------------------------------|
|------------------------------------------------------------|
|------7--8-7-5-------7---8--3-------7---8-7-5---3--5--5--5--|
|--5----5----------5----5----1----5----5--------1--3--3--3---|
|0---0----------0----0----------0---0------------------------|


(1:18 - 1:36)
|-----------------------------------------------------------------|
|-----------------------------------------------------------------|
|-----------------------------------------------------------------|
|3---------------3---------------3---------------5----------------|
|3-000-000-00----3-000-000-00----3-000-000-00----5-555-553-33-----|
|3-000-000-00320-3-000-000-00320-3-000-000-00320-5-555-553-33320--|


(1:36 - 1:53)
|------------------------------------------------------------------------|
|------------------------------------------------------------------------|
|------------------------------------------------------------------------|
|------------------------------------------------------------------------|
|1-0----3-6-5-3-1-0----3----5-1----1-0----3-6-5-3-1-0--1111113333333311--|
|1-0-00-3-6-5-3-1-0-00-3-00-5-1-00-1-0-00-3-6-5-3-1-0--1111113333333311--|


(1:53 - 2:10)
|-----------------------------------------------------------|
|-----------------------------------------------------------|
|-----------------------------------------------------------|
|-----------------------------------------------------------|
|-----------------------------------------1111113333333311--|
|1-0--3-6-5-3-1-0--3-5-1---1-0--3-6-5-3-1-1111113333333311--|


(2:10 - 2:28)
|------------------------------------------------------------|
|------------------------------------------------------------|
|------------------------------------------------------------|
|------7--8-7-5-------7---8--3-------7---8-7-5---3--5--5--5--|
|--5----5----------5----5----1----5----5--------1--3--3--3---|
|0---0----------0----0----------0---0------------------------|


(2:28 - 2:45)
|-----------------------------------------------------------------|
|-----------------------------------------------------------------|
|-----------------------------------------------------------------|
|3---------------3---------------3---------------5----------------|
|3-000-000-00----3-000-000-00----3-000-000-00----5-555-553-33-----|
|3-000-000-00320-3-000-000-00320-3-000-000-00320-5-555-553-33320--|


(2:45 - 4:04)
|-----------------------------------|
|-----------------------------------|
|-----------------------------------|
|0-----7-6~--------1-------3--------|
|0----------33-55--1-1-1-1-3-3-3-3--|
|0-----------------1-1-1-1-3-3-3-3--|     PLAY THESE RIFFS UNTIL
                                          THE SONG FADES OUT
|-----------------------------------|
|-----------------------------------|
|-----------------------------------|
|0-----7-6~--------3-------5--------|
|0----------33-55--3-3-3-3-5-5-5-5--|
|0-----------------3-3-3-3-5-5-5-5--|



keep it metal
            

comments powered by Disqus
↑ Back to top | Kataklysm Tabs for It Turns To Rust. Lyrics for acoustic guitar and electric guitar. Tablatures and chords are parodies/interpretations of the original songs. You may use it for private study, scholarship, research or language learning purposes only