» » »

Kataklysm, It Turns To Rust Tabs (ver.1)

Artists:  A B C D E F G H I J K L M N O P Q R S T U V W X Y Z # 

It Turns To Rust Tabs (ver.1)

Kataklysm Tabs
 Rating:
4/5 (4 votes)
It Turns To Rust lessons Tabs too difficult? Try these video lessons and learn fast
                K  K        TTTTTTTTTT     K  K  L   Y     Y SSSS  MM   MM
K K             T          K K   L    Y   Y  S     M M M M
KK        A     T     A    KK    L     Y Y   SSSS  M  M  M
K K      A A    T    A A   K K   L      Y       S  M     M
K  K    AAAAA   T   AAAAA  K  K  L      Y       S  M     M
K   K  A     A  T  A     A K   K LLLLL  Y    SSSS  M     M

Band: Kataklysm

Key:
/=Slide up to note
*=Vibrato
~=Let note ring
.=Palm mute

Intro:                     . . .   . . .
|----------------------------------------|
|----------------------------------------|
|----------------------------------------|
|---2*--/6-5*~--2-2-4-4--3-0-0-0-5-0-0-0-|
|---2*-------------------3-0-0-0-5-0-0-0-|
|---0*-------------------3-0-0-0-5-0-0-0-|

Verse: ... ... ..     . 
|-----------------------|
|-----------------------|
|-----------------------| (x2)
|---3--000-000-00-3-3-0-|
|---3--000-000-00-3-3-0-|
|---3--000-000-00-3-3-0-|
       ... ... ..     .    ... ... ..     .    
|---------------------------------------------|
|---------------------------------------------|
|---------------------------------------------|
|---3--000-000-00-3-3-0-5--555-333-33-3-3-0-3-|
|---3--000-000-00-3-3-0-5--555-333-33-3-3-0-3-|
|---3--000-000-00-3-3-0-5--555-333-33-3-3-0-3-|

Chorus:
|-------------------------------------|
|-------------------------------------|
|-------------------------------------|
|---1-0-00-3-00-6-5-3-1-0-00-3-00-5-0-|
|---1-0-00-3-00-6-5-3-1-0-00-3-00-5-0-|
|---1-0-00-3-00-6-5-3-1-0-00-3-00-5-0-|

|---------------------------------------|
|---------------------------------------|
|---------------------------------------|
|---1-0-00-3-00-6-5-3-11111111-33333333-|
|---1-0-00-3-00-6-5-3-11111111-33333333-|
|---1-0-00-3-00-6-5-3-11111111-33333333-|


Pro-Chorus:
|---------------------------------|
|---------------------------------|
|---------------------------------|
|-------7---8-7-5--------7---8-5~-|
|---5-----5----------5-----5------|
|-0---0------------0---0----------|

|-------------------------------------|
|-------------------------------------|
|-------------------------------------|
|-------7---8-7-5--33333333--55555555-|
|---5-----5--------11111111--33333333-|
|-0---0-------------------------------|

Bridge:
|-----------------------------|
|-----------------------------|
|-----------------------------|
|-----------------------------|
|-----------------------------|
|-1-0~-3--6-5-3-1-0~--3--5-0~-|

|---------------------------------|
|---------------------------------|
|---------------------------------|
|---------------11111111-33333333-|
|---------------11111111-33333333-|
|-1-0~-3--6-5-3-11111111-33333333-|
 

Song Layout:
Intro= x4
Verse= x2
Chorus= x2
Pro-Chorus= x2
Verse= x2
Chorus= x2
Bridge= x2
Pro-Chorus= x2
Verse= x2
Intro= x12
            
Submit corrections

comments powered by Disqus
↑ Back to top | Kataklysm Tabs for It Turns To Rust. Lyrics for acoustic guitar and electric guitar. Tablatures and chords are parodies/interpretations of the original songs. You may use it for private study, scholarship, research or language learning purposes only