» » »

Kataklysm, Blood In Heaven Tabs (ver.1)

Artists:  A B C D E F G H I J K L M N O P Q R S T U V W X Y Z # 

Blood In Heaven Tabs (ver.1)

Kataklysm Tabs
 Rating:
4/5 (6 votes)
Blood In Heaven lessons Tabs too difficult? Try these video lessons and learn fast
                BLOOD IN HEAVEN

__=palm mute
p=pull off
b=bend
"=tremblo pick
h=hammer on

B TUNING (B,E,A,D,F#,B)

 RIFF 1A (BOTH GUITARS)
|-------------------------------------------------|
|-------------------------------------------------|
|-------------------------------------------------|
|-7--------7---5-------5-7-------7-9--------------|
|-9--------9---7-------7-9-------9-10-------------|
|---00-000---0--00-000-0--00-000-0---00-000-00----|
    __ ___   _  __ ___ _  __ ___ _   __ ___ __

 RIFF 1B (BOTH GUITARS)
|-------------------------------------------------|
|-------------------------------------------------|
|-------------------------------------------------|
|-7-----------5-------5-7--------7-5--------------|
|-9--------5--7-------7-9--------9-7--------------|
|---00-000-3-0--00-000-0---00-000-0--00-000-00----|
    __ ___   _  __ ___ _   __ ___ _  __ ___ __

 RIFF 1A
 RIFF 1B

 RIFF 2          X8
|------------------|
|------------------|
|------------------|
|------------------|
|-5b---------------|
|-3b-00-00-0000----|
     __ __ ____

 RIFF 3A (GUITAR 1)              X2
|----------------------------------|
|----------------------------------|
|----------------------------------|
|----------------------------------|
|---2---2---2---2---2---2---2-3/5--|
|-3---3---3---3---3---3---3---1/3--|
| ___ ___ ___ ___ ___ ___ ___      |
|                                  |
| RIFF 3A (GUITAR 2)             X2|
|----------------------------------|
|----------------------------------|
|----------------------------------|
|----------------------------------|
|---2---2---2---2---2---2---2-3/5--|
|-3---3---3---3---3---3---3---1/3--|
  ___ ___ ___ ___ ___ ___ ___

 RIFF 3B (GUITAR 1)              X2
|----------------------------------|
|----------------------------------|
|----------------------------------|
|----------------------------------|
|---2---2---2---2---2---2---2-3/5--|
|-0---0---0---0---0---0---0---1/3--|
| ___ ___ ___ ___ ___ ___ ___      |
| RIFF 3B (GUITAR 2)             X2|
|----------------------------------|
|----------------------------------|
|----------------------------------|
|----------------------------------|
|---2---2---2---2---2---2---2-3/5--|
|-0---0---0---0---0---0---0---1/3--|
  ___ ___ ___ ___ ___ ___ ___

 CHORUS (GUITAR 1)                                          X2
|------------------------------------------------------------|
|------------------------------------------------------------|
|--------------------------------------------------------9-7-|
|------10-9---12-10-9-7-9-10-5-7------10-9---12-10-9-7-9-----|
|-10-7------7--------------------10-7------7-----------------|
|------------------------------------------------------------|
|                                                            |
| CHORUS (GUITAR 2)                                        X2|
|------------------------------------------------------------|
|------------------------------------------------------------|
|------------------------------------------------------------|
|------------------------------------------------------------|
|-2222---2222---555---444--444--2222---2222---555---444---77-|
|-0000---0000---333---222--222--0000---0000---333---222---55-|

 RIFF 4                             X8
|------------------------------------------|
|------------------------------------------|
|------------------------------------------|
|------------------------------------------|
|-8--------8--7--8-10--8-10-8-7------------|
|--00-10-00-00-00-0--0---------00000-2"-5"-|
   __    __ __ __ _  _         _____

 FILL
|--------|
|--------|
|--------|
|--------|
|-2------|
|-0------|



Dave Linsk (Solo)



  |--3--| |--3--| |--3--| |--3--| |--3--| |--3--| |--3--| |--3--|  
  S  S  S S  S  S S  S  S S  S  S S  S  S S  S  S S  S  S S  S  S  
------------------------------------------------------------------|
--0h-7h-9-0h-7h-9-0h-7h-9-0h-7h-9-0h-7h-9-0h-7h-9-0h-7h-9-0h-7h-9-|
------------------------------------------------------------------|
------------------------------------------------------------------|
------------------------------------------------------------------|
------------------------------------------------------------------|


  |--3--| |--3--| |--3--| |--3--| |--3--| |--3--| |--3--| |--3--|  
  S  S  S S  S  S S  S  S S  S  S S  S  S S  S  S S  S  S S  S  S  
------------------------------------------------------------------|
--0h-5h-7-0h-5h-7-0h-5h-7-0h-5h-7-0h-5h-7-0h-5h-7-0h-5h-7-0h-5h-7-|
------------------------------------------------------------------|
------------------------------------------------------------------|
------------------------------------------------------------------|
------------------------------------------------------------------|


  |--3--| |--3--| |--3--| |--3--| |--3--| |--3--| |--3--| |--3--|  
  S  S  S S  S  S S  S  S S  S  S S  S  S S  S  S S  S  S S  S  S  
------------------------------------------------------------------|
--0h-3h-5-0h-3h-5-0h-3h-5-0h-3h-5-0h-3h-5-0h-3h-5-0h-3h-5-0h-3h-5-|
------------------------------------------------------------------|
------------------------------------------------------------------|
------------------------------------------------------------------|
------------------------------------------------------------------|


  H.            T  T  T  E  T     Q      E   E   S  S  E   
------------------------------|---------------------------|
--2b------------2h-3p-2p-0--L-|--12b----12--12--12p-9-----|
------------------------------|-----------------------11--|
------------------------------|---------------------------|
------------------------------|---------------------------|
------------------------------|---------------------------|


       |---3---|         |---3---|                                 
  Q    E   E   E   Q     E   E   E      S.  S  H         Q     S.  
------------------------------------|------12-14b--------L~----L--|
--------------12--11~-----------12--|--11~------------------------|
--9----9--11-------------9--11------|-----------------------------|
------------------------------------|-----------------------------|
------------------------------------|-----------------------------|
------------------------------------|-----------------------------|


   |--3--|  |--3--|  |--3--|  |--3--|  |--3--|  |--3--|  |--3--|  |--3--|  |--3-
   T  T  T  T  T  T  T  T  T  T  T  T  T  T  T  T  T  T  T  T  T  T  T  T  T  T 
--15-15-15-15-15-19-19-19-17-17-17-15-15-15-15-15-15-15-19-19-19-17-17-17-15-15-
--------------------------------------------------------------------------------
--------------------------------------------------------------------------------
--------------------------------------------------------------------------------
--------------------------------------------------------------------------------
--------------------------------------------------------------------------------


              |---3---|                              |----3----|            
   H          E   E   E   Q          E   Q      E    E    E    E    Q       
--24b--------24--24--24--24b~----|--22--24b----24b--24b--24b--24b--24b~----|
---------------------------------|-----------------------------------------|
---------------------------------|-----------------------------------------|
---------------------------------|-----------------------------------------|
---------------------------------|-----------------------------------------|
---------------------------------|-----------------------------------------|


   Q     Q.       Q     S  S  
--22----24b------22~----L-22-|
-----------------------------|
-----------------------------|
-----------------------------|
-----------------------------|
-----------------------------|


   E    T   T   S  E    T   T   S  E    T   T   S  E   T  T  S E   S S  
--24~--22p-20h-22-22~--17p-15h-17-17~--12h-14p-12-12~--7h-9p-7-7~--4-5-|
-----------------------------------------------------------------------|
-----------------------------------------------------------------------|
-----------------------------------------------------------------------|
-----------------------------------------------------------------------|
-----------------------------------------------------------------------|


     PH                                                                  
     H.            Q                                                     
--<>12~-----------------|
------------------------|
------------------------|
------------------------|
------------------------|
------------------------|



Duration Legend
---------------
W - whole
H - half
Q - quarter
E - 8th
S - 16th
T - 32nd
X - 64th
. - note dotted
|-n-|  - n-tuplets


Tablature Legend
----------------
L - tied note
x - dead note
g - grace note
(n) - ghost note
> - accentuded note
NH - natural harmonic
AH - artificial harmonic
TH - tapped harmonic
SH - semi harmonic
PH - pitch harmonic
h - hammer on
p - pull off
b - bend
br - bendRelease
pb - preBend
pbr - preBendRelease
brb - bendReleaseBend
\n/ - tremolo bar dip
\n - tremolo bar dive
-/n - tremolo bar Release up
/n\ - tremolo bar inverted dip
/n - tremolo bar return
-\n - tremolo bar Release down
S - shift slide
s - legato slide
/ -  slide into from below or out of upwards
\ -  slide into from above or out of downwards
~ - vibrato
W - wide vibrato
tr - trill
TP - tremolo picking
T - tapping
S - slap
P - pop
< - fade in
^ - brush up
v - brush down





RIFF 1A/B
 RIFF 2
 RIFF 3A/B
 CHORUS

RIFF 5A (guitar 1) (low distortion) PICK NOTES UP AND DOWN
|-------------------------------------|
|-------------------------------------|
|------------------------------444----|
|-2-222-222-222-22-5-555-4-444--------|
|-------------------------------------|
|-------------------------------------|
|                                     |
| RIFF 5A (GUITAR 2)                  |
|-------------------------------------|
|-------------------------------------|
|-------------------------------------|
|-------------------------------------|
|-------------------------------------|
|-------------------------------------|

 RIFF 5B (GUITAR 1)
|-------------------------------------|
|-------------------------------------|
|-------------------------------------|
|-2-2-2-2-2-2-2-2--5-555-4-444-0------|
|--3-3-3-3-3-3-3-3---------------2----|
|-------------------------------------|
|                                     |
| RIFF 5B (GUITAR 2)                  |
|-------------------------------------|
|-------------------------------------|
|-------------------------------------|
|-------------------------------------|
|-------------------------------------|
|-------------------------------------|

 RIFF 5C (GUITAR 1)
|-----------------------------------------------------------|
|-----------------------------------------------------------|
|------------------------------444--------------------------|
|-2-222-222-222-22-5-555-4-444----2-2-2-2-2--5-555-4-444-0--|
|----------------------------------3-3-3-3-3--------------2-|
|-----------------------------------------------------------|
|                                                           |
| RIFF 5C (GUITAR 2)                                        |
|-----------------------------------------------------------|
|-----------------------------------------------------------|
|-----------------------------------------------------------|
|-----------------------------------------------------------|
|-----------------------------------------------------------|
|-----------------------------------------------------------|

GUITAR 1 PLAYS THE SAME THING AGAIN WHILE GUITAR 2 PLAYS THIS RIFF OVER GUITAR 1
________________________________________________________________________________

 RIFF 5d (GUITAR 2)
|-----------------|
|-----------------|
|-----------------|
|-----------------|
|-7"-----10"--9"--|
|-----------------|

 RIFF 6 (GUITAR 1)
|--------------------------------------------------|
|--------------------------------------------------|
|--------------------------------------------------|
|----------------------7-9---------------------9-7-|
|---5h7h9-10-9---5h7h9-------5h7h9-10-9--5h7h9-----|
|-0------------0-----------0------------0----------|
|                                                  |
| RIFF 6 (GUITAR 2)                                |
|--------------------------------------------------|
|--------------------------------------------------|
|--------------------------------------------------|
|----------------------7-9---------------------9-7-|
|---5h7h9-10-9---5h7h9-------5h7h9-10-9--5h7h9-----|
|-0------------0-----------0------------0----------|

FILL


WELL THATS IT ITS A REALLY NICE SONG THAT ONLY TOOK US ABOUT A WEEK TO TAB
 IF YOU HAVE ANY PROBLEMS OR questions or WOULD LIKE TO COMMENT 
            
Submit corrections

comments powered by Disqus
↑ Back to top | Kataklysm Tabs for Blood In Heaven. Lyrics for acoustic guitar and electric guitar. Tablatures and chords are parodies/interpretations of the original songs. You may use it for private study, scholarship, research or language learning purposes only