» » »

Blood In Heaven Tabs (ver.2)

Artists:  A B C D E F G H I J K L M N O P Q R S T U V W X Y Z # 

Blood In Heaven Tabs (ver.2)

Kataklysm
Rating:
4/5 (3 votes)

Hard to play? Try these video lessons and learn fast.
                kataklysm
blood in heaven

drop d

intro

--------------------------------------------------------------------------------------|
--------------------------------------------------------------------------------------|
--------------------------------------------------------------------------------------|
-1p0--0--0--0-0-0-1p0-2p0--0--0--0-0-0--2p0-3p0--0--0--0-0-0-3p0-2p0--0--0--0-0-0-0-0-|x2
-1p0--0--0--0-0-0-1p0-2p0--0--0--0-0-0--2p0-3p0--0--0--0-0-0-3p0-2p0--0--0--0-0-0-0-0-|
-1p0--0--0--0-0-0-1p0-2p0--0--0--0-0-0--2p0-3p0--0--0--0-0-0-3p0-2p0--0--0--0-0-0-0-0-|

(0:21)
--------------------------------------------------------------------------------------|
--------------------------------------------------------------------------------------|
--------------------------------------------------------------------------------------|
-1s4-0--0--0--0--0-0-0-0-1s4-0--0--0--0--0-0-0-0--------------------------------------|
-1s4-0--0--0--0--0-0-0-0-1s4-0--0--0--0--0-0-0-0--------------------------------------|
-1s4-0--0--0--0--0-0-0-0-1s4-0--0--0--0--0-0-0-0--------------------------------------|

(0:43)
--------------------------------------------------------------------------------------|
--------------------------------------------------------------------------------------|
--------------------------------------------------------------------------------------|
--------------------------------------------------------------------------------------|
-0-0-0-0-0-0-0-0-0-0-0-0-0-0-0-0-1s4-0-0-0-0-0-0-0-0-0-0-0-0-0-0-0-0-1s4--------------|
-0-0-0-0-0-0-0-0-0-0-0-0-0-0-0-0-1s4-0-0-0-0-0-0-0-0-0-0-0-0-0-0-0-0-1s4--------------|

(01:06)
--------------------------------------------------------------------------------------|
-------12--8--12--13--12--9--8----10---12--13--12-------------------------------------|
-9--12-------------------------10-----------------------------------------------------|
--------------------------------------------------------------------------------------|
--------------------------------------------------------------------------------------|
--------------------------------------------------------------------------------------|

thats all iv worked out so far.. i noticed no 1 has tabbed it yet..
keep it metal..
            
Hard to play? Try these video lessons and learn fast. | Correct




comments powered by Disqus
↑ Back to top | Tablatures and chords are parodies/interpretations of the original songs. You may use it for private study, scholarship, research or language learning purposes only