» » »

Kashmir, Victoria Bass tabs (ver.1)

Artists:  A B C D E F G H I J K L M N O P Q R S T U V W X Y Z # 

Victoria Bass tabs (ver.1)

Kashmir Tabs
 Rating:
4/5 (4 votes)
Victoria lessons Tabs too difficult? Try these video lessons and learn fast
1
                

Intro: Use a synthesizer effect (sounds cool)
G----------------------------------------------------------------|
D----4-----------------4-----------------------------------------|
A-------2-----3-----------2------3--1----------------------------|
D-0--------5-----3--0---------5----------------------------------|

Verse:

"I know that..."
G----------------------------------------------------------------|
D----------------------------------------------------------------|
A----------------------------------------------------------------|
D-0-0--0-5-5--5-0-0--0-7-7--7-0-0--0-8-8----7--5--3--2--1--------|


"Your 60 I'm 20..."
G----------------------------------------
D--0-------------------------------------
A----------------------------------------
D-----5-5--5-0-0--0-7-7--7-8-8--8-10-10--


G-------------------------
D-------------------------
A-------------------------
E-10--12-12-10-10-9-8-7---

Chorus:

"Take your time..."
G----------------------------------------------------------------|
D----------------------------------------------------------------|
A----------------------------------------------------------------|
D--0--0--4--4--7--7--8--8-----12--10---8---7---12--10--7---5-5-5-|


G----------------------------------------------------------------|
D----------------------------------------------------------------|
A----------------------------------------------------------------|
D--0-0--4-4--9-9--8-8---\0--4--9--5---0-0---0-5--5---------------|

Bridge:

G----------------------------------------------------------------|
D----------------------------------------------------------------|
A----------------------------------------------------------------|
D--5-5-5-5-5--5-5--5-5-5-5-5-5-5-5--5-5-5---8-7-6----------------|


Intro x 2

"I tried not to breath..."
G----------------------------------------------------------------|
D----------------------------------------------------------------|
A----------------------------------------------------------------|
D---12--11--9--7---5--3---55-5-----------------------------------|

G----------------------------------------------------------------|
D----4-----------------4-----------------------------------------|
A-------2-----3-----------2------3---2---1-----------------------|
D-0--------5-----3--0---------5----------------------------------|

Solo:

Verse
Chorus

Then (again with synthesizer effect)
G----------------------------------------------------------------|
D----------------------------------------------------------------|
A----------------------------------------------------------------|
D-0--2-3-5-5-3--0--2-4-5----0--2-3-5-5-3--0--2-4-5-0-------------|

G----------------------------------------------------------------|
D----------------------------------------------------------------|
A------------------------------------------------------------2--1|
D---12--11--9--7---5--3---55-5----0--2-3-5-5-3--0--2-4-5-0-------|


Outro:

Intro x 2
            
Submit corrections

comments powered by Disqus
↑ Back to top | Kashmir Bass for Victoria. Lyrics for acoustic guitar and electric guitar. 1 Tablatures and chords are parodies/interpretations of the original songs. You may use it for private study, scholarship, research or language learning purposes only