>
 >
Travelogue

Travelogue Guitar Tabs

Kashmir - Travelogue chords, tabs, tablatures, lyrics

Guitar lessons | Add/correct | Request | Top 50 tabs Artists:  A B C D E F G H I J K L M N O P Q R S T U V W X Y Z 0-9

Travelogue Guitar Tabs – Kashmir

CD, Sheet music, Poster

Do you like Travelogue? Share with your friends now
TabsTabs v2
    ______________
   / Kashmir     /  Jeg tror denne sang handler om en person, der aldrig har
  / Travelogue  /  kunne give slip på sig selv, tage ud i verden og leve livet
 / Cruzential  /  frit, som men bare er blevet derhjemme. Måske er det Eistrup
/_____________/  selv, der ikke selv føler sig frigjort nok? Who knows...

********************************************************************************
*  Check også min Guitar Pro-version af sangen, der er langt mere detaljeret:  *
*                                                                              *
********************************************************************************


 Intro
  E5            B/D#    G       C6                Am      B7
|-7-7-*-7-7-7---7-7-7---3-3-3---5-|-5-5---5-5-5---5-5-5---5-5-5---3-|
|-5-5-*-5-5-5---4-4-4---3-3-3---5-|-5-5---5-5-5---5-5-5---4-4-4---5-|
|-4-4-*-4-4-4---4-4-4---4-4-4---5-|-5-5---5-5-5---5-5-5---4-4-4---4-|
|-----*---------------------------|---------------------------------|
|-----*-------------------------3-|-3-3---3-3-3-----------2-2-2-----|
|-----*---------------------------|---------------5-5-5-------------|
      *dæmp strengene med højre hånd i alle mellemrummene

  Em/B                              Em/B    Esus2/B Em/B    Esus2/B
|-3-3---3-3-3---3-3-3---3-3-3---5-|-3-3---5-2-2---5-3-3---5-2-2---7-|
|-5-5---5-5-5---5-5-5---5-5-5---5-|-5-5---5-5-5---5-5-5---5-5-5---5-|
|-4-4---4-4-4---4-4-4---4-4-4---4-|-4-4---4-4-4---4-4-4---4-4-4---4-|
|---------------------------------|---------------------------------|
|---------------------------------|-------------------------------7-|
|---------------------------------|---------------------------------|




 1.Vers
  E5            B/D#    G       C6                Am      B7
|-7-7---7-7-7---7-7-7---3-3-3---5-|-5-5---5-5-5---5-5-5---5-5-5---3-|
|-5-5---5-5-5---4-4-4---3-3-3---5-|-5-5---5-5-5---5-5-5---4-4-4---5-|
|-4-4---4-4-4---4-4-4---4-4-4---5-|-5-5---5-5-5---5-5-5---4-4-4---4-|
|---------------------------------|---------------------------------|
|-7-7---7-7-7---6-6-6-----------3-|-3-3---3-3-3-----------2-2-2---2-|
|-----------------------3-3-3-----|---------------5-5-5-------------|
...pouring up the wine from yesterday...


  Em/B          Esus2/B Esus2/G Cb5               Bsus4   B
|-3-3---3-3-3---2-2-2---2-2-2---2-|-2-2---2-2-2---2-2-2---2-2-2---7-|
|-5-5---5-5-5---5-5-5---5-5-5---5-|-5-5---5-5-5---5-5-5---4-4-4---5-|
|-4-4---4-4-4---4-4-4---4-4-4---5-|-5-5---5-5-5---4-4-4---4-4-4---4-|
|---------------------------------|---------------------------------|
|-2-2---2-2-2---2-2-2-----------3-|-3-3---3-3-3---2-2-2---2-2-2---7-|
|-----------------------3-3-3-----|---------------------------------|


  E5            B/D#    G       C6                Am      B7
|-7-7---7-7-7---7-7-7---3-3-3---5-|-5-5---5-5-5---5-5-5---5-5-5---3-|
|-5-5---5-5-5---4-4-4---3-3-3---5-|-5-5---5-5-5---5-5-5---4-4-4---5-|
|-4-4---4-4-4---4-4-4---4-4-4---5-|-5-5---5-5-5---5-5-5---4-4-4---4-|
|---------------------------------|---------------------------------|
|-7-7---7-7-7---6-6-6-----------3-|-3-3---3-3-3-----------2-2-2---2-|
|-----------------------3-3-3-----|---------------5-5-5-------------|


  Em/B          Esus2/B Esus2/G Cb5               Bsus4   B
|-3-3---3-3-3---2-2-2---2-2-2---2-|-2-2---2-2-2---2-2-2---2-2-2-----|
|-5-5---5-5-5---5-5-5---5-5-5---5-|-5-5---5-5-5---5-5-5---4-4-4-----|
|-4-4---4-4-4---4-4-4---4-4-4---5-|-5-5---5-5-5---4-4-4---4-4-4-----|
|---------------------------------|---------------------------------|
|-2-2---2-2-2---2-2-2-----------3-|-3-3---3-3-3---2-2-2---2-2-2-----|
|-----------------------3-3-3-----|---------------------------------|




 1.B-stykke:
  Am(add9)        B7
|-5-----7-5-5-5-5--7--7--7--7--7--7--7-|
|-0-----0-0-0-0-0-10-10-10-10-10-10-10-|
|-5-----5-5-5-5-5--8--8--8--8--8--8--8-| x3
|-7-----7-7-7-7-7--9--9--9--9--9--9--9-|
|--------------------------------------|
|--------------------------------------|
...gathering the best in everything...


  Em              Esus2
|-3-----3-3-----3-2-----2-3-3-2-2-|
|-5-----5-5-----5-5-----5-5-5-5-5-|
|-4-----4-4-----4-4-----4-4-4-4-4-|
|-2-----2-2-----2-2-----2-2-2-2-2-|
|---------------------------------|
|---------------------------------|
...go...


  Am(add9)        B7
|-5-----7-5-5-5-5--7--7--7--7--7--7--7-|
|-0-----0-0-0-0-0-10-10-10-10-10-10-10-|
|-5-----5-5-5-5-5--8--8--8--8--8--8--8-| x3
|-7-----7-7-7-7-7--9--9--9--9--9--9--9-|
|--------------------------------------|
|--------------------------------------|
...wondering and still not wondering...


  Em              Esus2/B Esus2/G   Am(add9)          B
|-3-----3-3-3-2-2-2-2-2-2-2-2-2-2-|-5-----5-5-5-5-5---7-7-7---------|
|-5-----5-5-5-5-5-5-5-5-5-5-5-5-5-|-0-----0-0-0-0-0---7-7-7---------|
|-4-----4-4-4-4-4-4-4-4-4-4-4-4-4-|-5-----5-5-5-5-5---8-8-8---------|
|-2-----2-2-2-2-2-----------------|-7-----7-7-7-7-7---9-9-9---------|
|-----------------2-2-2-2---------|-0-----0-0-0-0-0---9-9-9---------|
|-------------------------3-3-3-3-|-------------------7-7-7---------|
...know...




 2.Vers
  E5            B/D#    G       C6                Am      B7
  PM|   PM--|   PM--|   PM--|   PM----|   PM--|   PM--|   PM--|   PM
|-7-7---7-7-7---7-7-7---3-3-3---5-|-5-5---5-5-5---5-5-5---5-5-5---3-|
|-5-5---5-5-5---4-4-4---3-3-3---5-|-5-5---5-5-5---5-5-5---4-4-4---5-|
|-4-4---4-4-4---4-4-4---4-4-4---5-|-5-5---5-5-5---5-5-5---4-4-4---4-|
|---------------------------------|---------------------------------|
|---------------------------------|---------------------------------|
|---------------------------------|---------------------------------|


  Em/B          Esus2/B Esus2/G Cb5               Bsus4   B
  PM|   PM--|   PM--|   PM--|   PM----|   PM--|   PM--|   PM--|   PM
|-3-3---3-3-3---2-2-2---2-2-2---2-|-2-2---2-2-2---2-2-2---2-2-2---7-|
|-5-5---5-5-5---5-5-5---5-5-5---5-|-5-5---5-5-5---5-5-5---4-4-4---5-|
|-4-4---4-4-4---4-4-4---4-4-4---5-|-5-5---5-5-5---4-4-4---4-4-4---4-|
|---------------------------------|---------------------------------|
|---------------------------------|---------------------------------|
|---------------------------------|---------------------------------|


  E5            B/D#    G       C6                Am      B7
  PM|   PM--|   PM--|   PM--|   PM----|   PM--|   PM--|   PM--|   PM
|-7-7---7-7-7---7-7-7---3-3-3---5-|-5-5---5-5-5---5-5-5---5-5-5---3-|
|-5-5---5-5-5---4-4-4---3-3-3---5-|-5-5---5-5-5---5-5-5---4-4-4---5-|
|-4-4---4-4-4---4-4-4---4-4-4---5-|-5-5---5-5-5---5-5-5---4-4-4---4-|
|---------------------------------|---------------------------------|
|---------------------------------|---------------------------------|
|---------------------------------|---------------------------------|


  Em/B          Esus2/B Esus2/G Cb5               Bsus4   B
  PM|   PM--|   PM--|   PM--|   PM----|   PM--|   PM--|   PM|
|-3-3---3-3-3---2-2-2---2-2-2---2-|-2-2---2-2-2---2-2-2---2-2-------|
|-5-5---5-5-5---5-5-5---5-5-5---5-|-5-5---5-5-5---5-5-5---4-4-------|
|-4-4---4-4-4---4-4-4---4-4-4---5-|-5-5---5-5-5---4-4-4---4-4-------|
|---------------------------------|-------------------------4-------|
|---------------------------------|---------------------------------|
|---------------------------------|---------------------------------|




 2.B-stykke:
første halvdel er magen til 1.B-stykke


  Am(add9)        B7
|-5-----7-5-5-5-5--7--7--7--7--7--7---|
|-0-----0-0-0-0-0-10-10-10-10-10-10---|
|-5-----5-5-5-5-5--8--8--8--8--8--8---| x3
|-7-----7-7-7-7-7--9--9--9--9--9--9---|
|-------------------------------------|
|-------------------------------------|
...wondering and still not wondering...


  Em              Esus2         Am7                 Am6
|-3-----3-3-3---3-2-2-2-2-3-3---5-|-------5-5-5---5-5-5---5-------8-|
|-5-----5-5-5---5-5-5-5-5-5-5---8-|-------8-8-8---8-7-7---8-------8-|
|-4-----4-4-4---4-4-4-4-4-4-4---5-|-------5-5-5---5-5-5---5-------9-|
|-2-----2-2-2---2-2-2-2-2-2-2---7-|-------7-7-7---7-7-7---7---------|
|---------------------------------|---------------------------------|
|---------------------------------|---------------------------------|
...know...


  C                             Bsus4               B             PM
|---8---8-8-8---8-8-8---8-8-8---7-|-7-7---7-7-7---7-7-7---7-7\------|
|---8---8-8-8---8-8-8---8-8-8---7-|-7-7---7-7-7---7-7-7---7-7\------|
|---9---9-9-9---9-9-9---9-9-9---9-|-9-9---9-9-9---9-8-8---8-8\----1-|
|---------------------------------|-------------------------------2-|
|---------------------------------|-------------------------------2-|
|---------------------------------|---------------------------------|




 C-stykke:
   E             C#m             B                 G#m
||---------------------------------|---------------------------------|
||---------------------------------|---------------------------------|
||---1-1-1-1-1-1-----------------1-|-1-1-1-1-------------------------|
||---2-2-2-2-2-2-2-2-2-2-2-2-2-2-1-|-1-1-1-1-4-4-1-4-4-4-4-4-4-4-4-2-|
||---2-2-2-2-2-2-4-4-4-4-4-4-4-4-2-|-2-2-2-2-2-2-2-6-6-6-6-6-6-6-6-6-|
||---------------------------------|---------------------------------|
...in this travelogue...


                                   1.
  C#sus4  C#m   C#sus2  C#m     Db5       D5      Db5     D5
|---------------------------------|---------------------------------||
|---------------------------------|---------------------------------||
|---------------------------------|-------------------------------1-||
|-4-4-4-2-2-2-2-1-1-1-1-2-2-2-2-6-|-6-6-6-7-7-7-7-6-6-6-6-7-7-7-7-2-||
|-4-4-4-4-4-4-4-4-4-4-4-4-4-4-4-5-|-5-5-5-5-5-5-5-5-5-5-5-5-5-5-5-2-||
|---------------------------------|---------------------------------||


 2.
  Db5   D5      Db5     D5      Db5       D5      Db5     D5
|---------------------------------|---------------------------------|
|---------------------------------|---------------------------------|
|---------------------------------|---------------------------------|
|-6-6-6-7-7-7-7-6-6-6-6-7-7-7-7-6-|-6-6-6-7-7-7-7-6-6-6-6-7-7-7-7-6-|
|-5-5-5-5-5-5-5-5-5-5-5-5-5-5-5-5-|-5-5-5-5-5-5-5-5-5-5-5-5-5-5-5-5-|
|---------------------------------|---------------------------------|


  Db5   D5      Db5     D5      Db5       D5      Db5     D5
|---------------------------------|---------------------------------|
|---------------------------------|---------------------------------|
|---------------------------------|-------------------------6-6-6-6-|
|-6-6-6-7-7-7-7-6-6-6-6-7-7-7-7-6-|-6-6-6-7-7-7-7-6-6-6-6-7-7-7-7-7-|
|-5-5-5-5-5-5-5-5-5-5-5-5-5-5-5-5-|-5-5-5-5-5-5-5-5-5-5-5-5-5-5-5-5-|
|---------------------------------|---------------------------------|




 Bridge:
  E5             F#7sus4                 G6                  Asus2
|-0----0-0-0-0-0--0----0--0--0--0--0-|--0----0--0--0--0--0--0----0--0--0--0--0-|
|-0----0-0-0-0-0--0----0--0--0--0--0-|--0----0--0--0--0--0--0----0--0--0--0--0-|
|-9----9-9-9-9-9-11---11-11-11-11-11-|-12---12-12-12-12-12-14---14-14-14-14-14-|
|------------------------------------|-----------------------------------------|
|-7----7-7-7-7-7--9----9--9--9--9--9-|-10---10-10-10-10-10-12---12-12-12-12-12-|
|------------------------------------|-----------------------------------------|

 ...4x




 D-stykke:
  Adim        F#dim       D#dim         Cdim
|-8-----8-----5-----5-------------|---------------------------------|
|-7-----7-----4-----4-----7-----7-|-----4-----4---------------------|
|-8-----8-----5-----5-----5-----5-|-----2-----2---------------------|
|-7-----7-----4-----4-----7-----7-|-----4-----4---------------------|
|-------------------------6-----6-|-----3-----3-----3-------2-------|
|---------------------------------|---------------------------------|
...all I ever wanted...


  Em6(add9)                         Em6(add9)
|---------------------------------|---------------------------------|
|-7--7----7---7-7-----7-7---7---7-|-7---7--7----7---7---7-7---7---7-|
|-6--6----6---6-6-----6-6---6---6-|-6---6--6----6---6---6-6---6---6-|
|-5--5----5---5-5-----5-5---5---5-|-5---5--5----5---5---5-5---5---5-|
|-7--7----7---7-7-----7-7---7---7-|-7---7--7----7---7---7-7---7---7-|
|---------------------------------|---------------------------------|


  Adim        F#dim       D#dim         Cdim
|-8-----8-----5-----5-------------|---------------------------------|
|-7-----7-----4-----4-----7-----7-|-----4-----4---------------------|
|-8-----8-----5-----5-----5-----5-|-----2-----2---------------------|
|-7-----7-----4-----4-----7-----7-|-----4-----4---------------------|
|-------------------------6-----6-|-----3-----3-----3-------2-------|
|---------------------------------|---------------------------------|


  Em6(add9)                         Em6(add9)
|---------------------------------|---------------------------------|
|-7--7----7---7-7-----7-7---7---7-|-7---7--7----7---7---7-7---7---7-|
|-6--6----6---6-6-----6-6---6---6-|-6---6--6----6---6---6-6---6---6-|
|-5--5----5---5-5-----5-5---5---5-|-5---5--5----5---5---5-5---5---5-|
|-7--7----7---7-7-----7-7---7---7-|-7---7--7----7---7---7-7---7---7-|
|---------------------------------|---------------------------------|


  Cdim                              Cdim
|-8--8----8---8-8-----8-8---8---8-|-8---8--8----8---8---8-8---8---8-|
|-7--7----7---7-7-----7-7---7---7-|-7---7--7----7---7---7-7---7---7-|
|-8--8----8---8-8-----8-8---8---8-|-8---8--8----8---8---8-8---8---8-|
|-7--7----7---7-7-----7-7---7---7-|-7---7--7----7---7---7-7---7---7-|
|---------------------------------|---------------------------------|
|---------------------------------|---------------------------------|
...the tickle in my nose...


  B                                 B
|-7--7----7---7-7-----7-7---7---7-|-7---7--7----7---7---7-7-7-7-7-7-|
|-7--7----7---7-7-----7-7---7---7-|-7---7--7----7---7---7-7-7-7-7-7-|
|-8--8----8---8-8-----8-8---8---8-|-8---8--8----8---8---8-8-8-8-8-8-|
|-9--9----9---9-9-----9-9---9---9-|-9---9--9----9---9---9-9-9-9-9-9-|
|---------------------------------|---------------------------------|
|---------------------------------|---------------------------------|


  Cdim                              Cdim
|-8--8----8---8-8-----8-8---8---8-|-8---8--8----8---8---8-8---8---8-|
|-7--7----7---7-7-----7-7---7---7-|-7---7--7----7---7---7-7---7---7-|
|-8--8----8---8-8-----8-8---8---8-|-8---8--8----8---8---8-8---8---8-|
|-7--7----7---7-7-----7-7---7---7-|-7---7--7----7---7---7-7---7---7-|
|---------------------------------|---------------------------------|
|---------------------------------|---------------------------------|
...I want to go, I want to know...


  Cmaj7b5                           B
|--7--7---x---7-x--7-x-x-x--7-x-x-|-7-7---x-x--x-7---7----x--x-x--x-|
|--7--7---x---7-x--7-x-x-x--7-x-x-|-7-7---x-x--x-7---7----x--x-x--x-|
|--9--9---x---9-x--9-x-x-x--9-x-x-|-8-8---x-x--x-8---8----x--x-x--x-|
|-10-10---x--10-x-10-x-x-x-10-x-x-|-9-9---x-x--x-9---9----x--x-x--x-|
|---------------------------------|---------------------------------|
|---------------------------------|---------------------------------|




 Outro:
  E5             B(add11) G5(add6)  C               Am      B
                  PM      PM        PM              PM      PM
|-0-0---0--0-0--0---0---0---0---0-|---0---0-0-0---0---5---5---7---7-|
|-0-0---0--0-0--0---4---4---0---0-|---5---5-5-5---5---5---5---7---7-|
|-4-4---4--4-4--4---4---4---0---0-|---5---5-5-5---5---5---5---8---8-|
|-2-2---2--2-2--2-4-4---4---5---5-|-5-5---5-5-5---5---7---7---9---9-|
|-2-2---2--2-2--2-2-2---2-5-5---5-|-3-3---3-3-3---3-7-7---7-9-9---9-|
|-0-0---0--0-0--0---------3-3---3-|-----------------5-5---5-7-7---7-|


  E5             B(add11) G5(add6)  Cmaj7b5         Bsus4   B(add11)
  PM              PM      PM        PM
|---0---0--0-0--0---0---0---0---0-|---0---0-0-0---0-0-0---0-0-0---0-|
|---0---0--0-0--0---4---4---0---0-|---5---5-5-5---5-5-5---5-4-4---4-|
|---4---4--4-4--4---4---4---0---0-|---4---4-4-4---4-4-4---4-4-4---4-|
|---2---2--2-2--2-4-4---4---5---5-|-4-4---4-4-4---4-4-4---4-4-4---4-|
|-2-2---2--2-2--2-2-2---2-5-5---5-|-3-3---3-3-3---3-2-2---2-2-2---2-|
|-0-0---0--0-0--0---------3-3---3-|---------------------------------|

 ...x2



  Em                  B/D#     G          C6                Am       B7
  PM                  PM       PM         PM                PM       PM
|---19-19-19-19-19-19----19-19----15-15-|----17-17-17-17-17----17-17----17-17-|
|---17-17-17-17-17-17----16-16----15-15-|----17-17-17-17-17----17-17----16-16-|
|---16-16-16-16-16-16----16-16----16-16-|----17-17-17-17-17----17-17----16-16-|
|---------------------------------------|-------------------------------------|
|---------------------14----------------|-15-------------------------14-------|
|-0----------------------------15-------|-------------------17----------------|


  Em                  Bsus4    G          C
  PM                           PM         PM
|---------15-15-14-14-14-14-------------|----0----------------------------|
|---17-17-17-17-17-17-17-17-------------|----5----------------------------|
|---16-16-16-16-16-16-16-16-------16----|----5----------------------------|
|---14-14-14-14-14-14-------------17----|-5--5----------------------------|
|---------------------14-14-------17----|-3--3----------------------------|
|-0----------------------------15-15----|---------------------------------|


- 19th /July /07





Comments


Popular Kashmir tabs & chords
Miss You Bass Tabs
The Story Of Jamie Fame Flame Bass Tabs
Bewildered In The City Chords
Milk For The Black Hearted Chords
No Balance Palace 2 Tabs
Small Poem Of Old Friend 1 Tabs
The Aftermath 1 Tabs
The New Gold Tabs
The Push Tabs
Mudbath Ukulele


Song lyrics



↑ Back to top | Tablatures and chords are parodies/interpretations of the original songs. You may use it for private study, scholarship, research or language learning purposes only
© 2014 AZChords.com Contact us | Privacy policy | DMCA | Add/correct tabs | Request tabs | Top 50 tabs