» » »

Rose Tabs (ver.1)

Artists:  A B C D E F G H I J K L M N O P Q R S T U V W X Y Z # 

Rose Tabs (ver.1)

Kashmir
Rating:
0/5 (0 votes)

Hard to play? Try these video lessons and learn fast.
                ----------------------------------------------------------
.

Part I:

E-|-7----7-----|--7----7------|--7-----7--|---7-----7-|-------------------------------|
B-|-4----5-----|--4----5------|--7-----7--|---7-----7-|-------------------------------|
G-|-6----6-----|--6----6------|--8-----9--|---8-----9-|-------------------------------|
D-|-7----7-----|--7----7------|--9-----9--|---9-----9-|-------------------------------|
A-|-0----0-----|--0----0------|--9-----7--|---9-----7-|-------------------------------|
E-|------------|--------------|--7--------|---7-------|-------------------------------|
     Rose..............
Don't ...

Part II:

      Dm                         A G Dm F
Don't drink up all the water....

Part III:

E-|-0--0--0--0--0--0--0--0--0-|-----------------------------------------------|
B-|-2--2--0--0--1--3--1--0--0-|-----I don't know what they play---------------|
G-|-2--2--2--2--2--2--2--2--0-|-----exactly, so just fiddle with--------------|
D-|-2--2--2--0--3--3--3--3--0-|-----it until it sounds right------------------|
A-|-0--0--0--0--0--0--0--0--0-|-----------------------------------------------|
E-|---------------------------|-----------------------------------------------|
   Rose, stay in my.....

Part IV:

(dist.)

A G Dm   A G C   A G Dm G C

You may wish to use 5th-cords instead, but that makes the sound wrong.

Part V:

A                F                  C          G
rose, stay in my Garden, just for a while..... 

------
            
Hard to play? Try these video lessons and learn fast. | Correct




comments powered by Disqus
↑ Back to top | Tablatures and chords are parodies/interpretations of the original songs. You may use it for private study, scholarship, research or language learning purposes only