» » »

Kashmir, No Balance Palace Tabs (ver.2)

Artists:  A B C D E F G H I J K L M N O P Q R S T U V W X Y Z # 

No Balance Palace Tabs (ver.2)

Kashmir Tabs
Rating:
0/5 (0 votes)
No Balance Palace lessons Tabs too difficult? Try these video lessons and learn fast
                Kashmir - No Balance Palace

This is a great song by a great danish band, dude......
This is not absolutely right, but we think you can make your own version with help from this. Good luck

Introriff
e|------------------------------------------|g
B|---------5---------7---------5-7-5--------|e
G|-----5-7-------5-7-------5-7------7-5-----|n
D|----7--------7---------7------------------|t
A|------------------------------------------|a
E|------------------------------------------|g

e|--------------------------------------------|
B|-------5---------------6-5------------------|
G|--5-5-----5-7----5-5-------7-5--------------|
D|-----7---7------7---7----------9--7--5--s7--|
A|--------------------------------------------|
E|--------------------------------------------|

  Am6  Am Am6   Am
I wish I knew where
     Am7             D
This devious road ends
Fmaj                Cmaj                 D
Dog fights in the street lights or indifference?

Am6     Am   Am6       Am        D
Death hangs patiently under the mirrorball
    Fmaj               Cmaj       Am
And no one seems to notice him at all


Am6   Am  Am6 Am       Am7             D        Fmaj       Cmaj   D
This room exudes with fast love and imagery, unflagging wished and jealousy
Am6   Am   Am6   Am

Mike says it’s okay
 Am7           D
We all need a little break
Fmaj                       Cmaj           Am
A grand spree we’re on a roll here once again

after the introriff comes this

e|----------------------------------------|
B|----------------------------------------|
G|----------------------------------------|
D|----------------------------------------|
A|----------------------------------------|
E|--0--0--0--0--3--5--7--0--0--3--5--0----|

E5       -/g  -/a
I wanna go
E5             -/g  -/a
When she says go
E5                         -/g  -/a   E5
Don’t say where, We don’t want to know
       F#5
It’s alright
           E5
No one’s lost
E5       -/g  -/a
I wanna rock
E5               -/g  -/a
Where you don’t rock
E5                   -/g -/a E5
’cause I can’t feel you anymore
        F#5
It’s alright
           E5
Nothings lost

--------------7-----5-------------------7--------5--|
--5-----8--------7-----8----5-----8--------7--8-----|
-----5-----7-------------------5-----7--------------|
----------------------------------------------------|
----------------------------------------------------|
----------------------------------------------------|


You are my song
So empathetic and so strong
You’ve waited forever
And though you did quiver
You came along
            

comments powered by Disqus
↑ Back to top | Kashmir Tabs for No Balance Palace. Lyrics for acoustic guitar and electric guitar. Tablatures and chords are parodies/interpretations of the original songs. You may use it for private study, scholarship, research or language learning purposes only