» » »

Kashmir, Mom In Love, Daddy In Space Tabs (ver.4)

Artists:  A B C D E F G H I J K L M N O P Q R S T U V W X Y Z # 

Mom In Love, Daddy In Space Tabs (ver.4)

Kashmir Tabs
 Rating:
4/5 (4 votes)
Mom In Love, Daddy In Space lessons Tabs too difficult? Try these video lessons and learn fast
1
                "(3)
Kashmir - mom in love, daddy in space.
  Am              H7              E7             Am
e-------------------------------------------------------------------->
h-----1-------1-------0-------0-------0-------0---------------------->
g---2---2---2---2---2---2---2---2---1---1---1---1-----2-------2------>
d-2-------2-------1-------1-------0-------0---------2---2---2---2---->
a-------------------------------------------------3-------3---------->
E-------------------------------------------------------------------->

  F               Dm6             G7             E        E7
e---------------------------------------------------------------------
h------------------------------------------------------0---1---3------
g-----2-------2-------4-------4-------4-------4------1---1---1---1----
d---3---3---3---3---3---3---3---3---5---5---5---5--2------------------
a-3-------3-------5-------5-------5-------5---------------------------
E---------------------------------------------------------------------


Verse (fingerplay too)
 Am                        H7                   
              Walking bones__                         
 
 E7                        Am                 
            choose your own__ di - rec - tion

 F                         Dm6
                go have fun__

 G7                        E     E7
            some place else__

 Am                        H7
            bring your soul__
 
 E7                        Am
             and your beach__ boys re - cords


 F                         Dm6
             I cant't stand__

 G7                        E     E7
        to have__ you here___

 Am                        H7
                so warn out___

 E7                        Am
               cold and de  -  hyd - rat - ed

 F                         Dm6
       the fortune is spent___

 Am/E                      E7
          dad's__ in space____    

Chorus:

 A                         Em7                       D
 e - ry home__ should have___          a mom in love____          and a da-

 A       E                 A                         Em7
ddy in space               chinese porce - lain cats______ to guard__ her 

 D                         F#m         E             F  
 love            in the win - dow space__      show____ her some re - spect

 F          G              A G# G F#
 she's all__ worn down.__
"            
Submit corrections

comments powered by Disqus
↑ Back to top | Kashmir Tabs for Mom In Love, Daddy In Space. Lyrics for acoustic guitar and electric guitar. 1 Tablatures and chords are parodies/interpretations of the original songs. You may use it for private study, scholarship, research or language learning purposes only