» » »

Kashmir, Mom In Love, Daddy In Space Tabs (ver.3)

Artists:  A B C D E F G H I J K L M N O P Q R S T U V W X Y Z # 

Mom In Love, Daddy In Space Tabs (ver.3)

Kashmir Tabs
Rating:
0/5 (0 votes)
Mom In Love, Daddy In Space lessons Tabs too difficult? Try these video lessons and learn fast
                    ____________________________
   /Kashmir                    / This song was the beginning of Kashmir's new 
  /Mom In Love Daddy In Space /  era on the Danish rock scene. It's about not to 
 /The Good Life              /   hold on to faded love but move on and realize
/___________________________/    that nothing lasts forever.

The goes in 4/4 and is played by two electric guitars in standard tuning.
The chords above the tab charts can be played if you want to play it simple
on an acoustic guitar for example.


INTRO (originally played from a keyboard, but here's a suggestion on guitar):
|-----------------|-----------------|-----------------|-----------------|
|-1---1-----------|-0---------------|-0---0---3-------|-----------------|
|-2---2-----------|-2---------------|-1---1-------4---|-2------2--------|
|-2---------------|-1---------------|-0---0-----------|-2---------------|
|-----------------|-----------------|-----------------|-3---------------|
|-----------------|-----------------|-----------------|-----------------|

|-----------------|-----------------|-----------------|-----------------|
|---------1-------|-----------------|-----------------|-0---------------|
|-2---2-----------|-4---------------|-4---4---5---4-2-|-1---------------|
|-3---3-----------|-3---------------|-5---5-----------|-----------------|
|-3---3-----------|-5---------------|-5---5-----------|-2---------------|
|-----------------|-----------------|-----------------|-----------------|



1st VERSE (the chords above the tab chart is the chords you can play while you
do the finger picking, but you can also just play them if you want some volume):
 Am                B7                E7                C6
|-----------------|-----------------|-----------------|-----------------|
|-----------------|-----------------|-----------------|-----------------|
|-----5-------5---|-----4-------4---|-----4-------4---|-----2-------2---|
|--/7---7---7---7-|---7---7---7-----|---6---6---6---6-|---2---2---2--2--|
|-7--------7------|-6--6-----6------|-5--5-----5------|-3--3-----3----3-|
|-----------------|-----------------|-----------------|-----------------|
 Walking bones                       Choose your own direction

 F                 G7                G                 E            E7
|-----------------|-----------------|-----------------|-----------------|
|-----------------|-----------------|-----------------|-----------------|
|-----2-------2---|-----4-------4---|-----4-------4---|-----4-------7---|
|---3---3---3---3-|---3---3---3---3-|---5---5---5---5-|---6---6---6---6-|
|-3--3-----3------|/5--5-----5-----5|-5--5-----5------|/7--7-----7------|
|-----------------|-----------------|-----------------|-----------------|
 Go have fun                         Some place else

 Am                B7                E7                C6
|-----------------|-----------------|-----------------|-----------------|
|-----------------|-----------------|-----------------|-----------------|
|-----5-------5---|-----4-------4---|-----4-------4---|-----2-------2---|
|---7---7---7---7-|---7---7---7--7--|---6---6---6---6-|---2---2---2--2--|
|-7--7-----7------|-6--6-----6----6-|-5--5----5-------|-3--3-----3----3-|
|-----------------|-----------------|-----------------|-----------------|
 Bring your soul                     And your beach boys records

 F                 G7                G                 E       Eaug E7
|-----------------|-----------------|-----------------|-----------------|
|-----------------|-----------------|-----------------|-----------------|
|-----2-------2---|-----4-------4---|-----4-------4---|-----4---5---7---|
|---3---3---3---3-|---3---3---3---3-|---5---5---5---5-|---6---6--6----6-|
|-3--3-----3------|/5--5-----5-----5|-5--5----5-------|/7---------7----7|
|-----------------|-----------------|-----------------|-----------------|
 I can't stand                       To have you here

 Am                B7                E7                C6
|-----------------|-----------------|-----------------|-----------------|
|-----------------|-----------------|-----------------|-----------------|
|-----5-------5---|-----4-------4---|-----4-------4---|-----2-------2---|
|---7---7---7---7-|---7---7---7--7--|---6---6---6---6-|---2---2---2--2--|
|-7--7----7-------|-6--6-----6----6-|-5--5-----5------|-3--3-----3----3-|
|-----------------|-----------------|-----------------|-----------------|
 So worn out                         Cold and dehydrated

  F                 G7                G                 E           E7
|-----------------|-----------------|-----------------|-----------------|
|-----------------|-----------------|-----------------|-----------------|
|-----2-------2---|-----4-------4---|-----4-------4---|-----4-------7---|
|---3---3---3---3-|---3---3---3---3-|---5---5---5---5-|---6---6--6----6-|
|-3--3----3------3|-5--5-----5-----5|/5--5----5-------|-7--7----7-7-----|
|-----------------|-----------------|-----------------|-----------------|
 Fortune's spend                     And dad's in space



1st CHORUS:
 A                 Em                D                 A       E
|-0---0---0-------|---0-----0---0---|-0---0---0-0-0---|-0---0-0-----0---|
|-3---2---0-------|---0-----3---2---|-3---3---3-3-3---|-2---3-2-----0---|
|-2---2---2---2-2-|---2-----0---0---|-2---2---2-2-2---|-2---2-2-1---1---|
|-2---2---2---2-2-|-2-2-----2---2---|-0---0---0-0-0---|-2---2-2-2---2---|
|-0---0---0---0-0-|-2-2-----2---2---|-----------------|-0---0-0-2---2---|
|-----------------|-0-0-----0---0---|-----------------|---------0---0---|
 Every home should have a mom in love and a daddy in space

 A                 Em                D                 F#m     E
|-0-0-----0-------|-----0-----0-0---|-----0-------0---|-----0-------0---|
|-3-2-----2-------|-----0-----3-2---|-3---3---3-3-3---|-----0-------0---|
|-2-2---2-2---2---|-0---2-----0-0---|-2---2---2-2-2---|-2---2---1---1---|
|-2-2---2-2---2---|-2---2-----2-2---|-0---0---0-0-0---|-2---2---2---2---|
|-0-0---0-0---0---|-2---2-----2-2---|-----------------|-0---0---2---2---|
|-----------------|-0---0-----0-0---|-----------------|-2---2---0---0---|
 Chinese porcelain cats to guard he love in the window space

 F                 F       G
|-----1-------1---|-----1-----------|
|-----1-------1---|-----1-----------|
|-----2-------2---|-----2---4-4-----|
|-3---3---3---3---|-3---3---5-5-----|
|-3---3---3---3---|-3---3---5-5-----|
|-1---1---1---1---|-1---1---3-3-----|
 Show her some respect she's all worn out



2nd VERSE (Still look at the charts, have patience...):
 Am                B7                E7                C6
|-----------------|-----------------|-----------------|-----------------|
|-----------------|-----------------|-----------------|-----------------|
|-----5-------5---|-----4-------4---|-----4-------4---|-----2-------2---|
|---7---7---7---7-|---7---7------7--|---6---6---6---6-|---2---2---2--2--|
|-7--------7------|-6--6-----6-6--6-|-5--5----5-------|-3--3-----3----3-|
|-----------------|-----------------|-----------------|-----------------|
 For years to come                   I will not forget you

 F                 G7                G                 E      Eaug E7
|-----------------|-----------------|-----------------|-----------------|
|-----------------|-----------------|-----------------|-----------------|
|-----2-------2---|-----4-------4---|-----4-------4---|-----4---5---7---|
|---3---3---3---3-|---3---3---3--3--|---5---5---5--5--|---6---6---6---6-|
|-3--3----3-------|-5--5-----5-5----|-5--5----5-----5-|/7--7-----------7|
|-----------------|-----------------|-----------------|-----------------|
 As my son                           As my pain

 Am                B7                E7                C6
|-----------------|-----------------|-----------------|-----------------|
|-----------------|-----------------|-----------------|-----------------|
|-----5-------5---|-----4-------4---|-----4-------4---|-----2-------2---|
|---7---7---7---7-|---7---7---7--7--|---6---6---6--6--|---2---2---2--2--|
|-7--7-----7------|-6--6-----6-6--6-|-5--5----5-----5-|-3--3-----3-3--3-|
|-----------------|-----------------|-----------------|-----------------|
 Time will heal                      What now feels so wounded

 F                 G7                G                 E7
|-----------------|-----------------|-----------------|-----------------|
|-----------------|-----------------|-----------------|-----------------|
|-----2-------2---|-----4-------4---|-----4-------4---|-----7-------7---|
|---3---3---3---3-|---3---3---3-----|---5---5---5---5-|---6---6--6----6-|
|-3--3-----3------|-5--5-----5------|/5--5-----5------|-7--7----7-7-----|
|-----------------|-----------------|-----------------|-----------------|
 Tears are spilled                   Holes will fill



2nd CHORUS:
 A                 Em                D                 A       E
|-0---0---0-------|---0-----0---0---|-0---0---0-0-0---|-0---0-0-----0---|
|-3---2---0-------|---0-----3---2---|-3---3---3-3-3---|-2---3-2-----0---|
|-2---2---2---2-2-|---2-----0---0---|-2---2---2-2-2---|-2---2-2-1---1---|
|-2---2---2---2-2-|-2-2-----2---2---|-0---0---0-0-0---|-2---2-2-2---2---|
|-0---0---0---0-0-|-2-2-----2---2---|-----------------|-0---0-0-2---2---|
|-----------------|-0-0-----0---0---|-----------------|---------0---0---|
 Every home should have a mom in love and a daddy in space

  A                 Em                D                 F#m     E
|-0-0-----0-------|-----0-----0-0---|-----0-------0---|-----0-------0---|
|-3-2-----2-------|-----0-----3-2---|-3---3---3-3-3---|-----0-------0---|
|-2-2---2-2---2---|-0---2-----0-0---|-2---2---2-2-2---|-2---2---1---1---|
|-2-2---2-2---2---|-2---2-----2-2---|-0---0---0-0-0---|-2---2---2---2---|
|-0-0---0-0---0---|-2---2-----2-2---|-----------------|-0---0---2---2---|
|-----------------|-0---0-----0-0---|-----------------|-2---2---0---0---|
 Chinese porcelain cats to guard he love in the window space

  F                 F       G         A         G# G F#    F                 F       G
||-----1-------1---|-----1-----------|-----5-----------|| |-----1-------1---|-----1-----------|
||-----1-------1---|-----1-----------|-----5-----------|| |-----1-------1---|-----1-----------|
||-----2-------2---|-----2-----------|-----6-----------|| |-----2-------2---|-----2---4-4-----|
||-3---3---3---3---|-3---3---5-5-----|-7---7---7-6-5-4-|| |-3---3---3---3---|-3---3---5-5-----|
||-3---3---3---3---|-3---3---5-5-----|-7---7---7-6-5-4-|| |-3---3---3---3---|-3---3---5-5-----|
||-1---1---1---1---|-1---1---3-3-----|-5---5---5-4-3-2-|| |-1---1---1---1---|-1---1---3-3-----|
  Show her some respect she's all worn out                 Show her some respect she's all worn

 A                 Em                D                 A       E
|-0---0---0-------|---0-----0---0---|-0---0---0-0-0---|-0---0-0-----0---|
|-3---2---0-------|---0-----3---2---|-3---3---3-3-3---|-2---3-2-----0---|
|-2---2---2---2-2-|---2-----0---0---|-2---2---2-2-2---|-2---2-2-1---1---|
|-2---2---2---2-2-|-2-2-----2---2---|-0---0---0-0-0---|-2---2-2-2---2---|
|-0---0---0---0-0-|-2-2-----2---2---|-----------------|-0---0-0-2---2---|
|-----------------|-0-0-----0---0---|-----------------|---------0---0---|
 Every home should have a mom in love and a daddy in space

 A                 Em                D                 F#m     E
|-0-0-----0-------|-----0-----0-0---|-----0-------0---|-----0-------0---|
|-3-2-----2-------|-----0-----3-2---|-3---3---3-3-3---|-----0-------0---|
|-2-2---2-2---2---|-0---2-----0-0---|-2---2---2-2-2---|-2---2---1---1---|
|-2-2---2-2---2---|-2---2-----2-2---|-0---0---0-0-0---|-2---2---2---2---|
|-0-0---0-0---0---|-2---2-----2-2---|-----------------|-0---0---2---2---|
|-----------------|-0---0-----0-0---|-----------------|-2---2---0---0---|
 Chinese porcelain cats to guard he love in the window space



SOLO & SOLO BACKUP (Added by a 2nd guitar playing simultaneously with the 1st guitar):

1st Guitar:
(E)  D                         D           E            F#m
----|-------------------------|------------------------|-------------------------|
----|-------------------------|------------------------|-------------------------|
-13-|-13/14-14-16-16-18-18-13-|-13/14-14-16-16/18---13-|-13/14-14-16-16-18-18-21-|
----|-------------------------|------------------------|-------------------------|
-11-|-11/12-12-14-14-16-16-11-|-11/12-12-14-14/16---11-|-11/12-12-14-14-16-16-19-|
----|-------------------------|------------------------|-------------------------|

 A                                  D                         D           E
|----------------------------------|-------------------------|------------------------|
|----------------------------------|-------------------------|------------------------|
|-21-19/21\17-18/19\18-16/18\16-13-|-13/14-14-16-16-18-18-13-|-13/14-14-16-16/18---13-|
|----------------------------------|-------------------------|------------------------|
|-19-17/19\17-16/17\16-14/16\14-11-|-11/12-12-14-14-16-16-11-|-11/12-12-14-14/16---11-|
|----------------------------------|-------------------------|------------------------|

 F#m                       A                         D (play with vibrato)     D         E
|-------------------------|-------------------------|-------------------------|--------------------|
|-------------------------|-------------------------|-------------------------|--------------------|
|-13/14-14-16-16-18-18-21-|-21-19-19-18-18-16-16-16-|-14-14-14-14-14-14-14-14-|-14\11-----13-9-----|
|-------------------------|-------------------------|-------------------------|--------------------|
|-11/12-12-14-14-16-16-19-|-19-17-17-16-16-14-14-14-|-12-12-12-12-12-12-12-12-|-12\9------11-7-----|
|-------------------------|-------------------------|-------------------------|--------------------|


2nd Guitar:
 D                 D       E         F#m               A
|-----0-------0---|-----0-------0---|-----2-------2---|-----0-------0---|
|-3-3-3---3-3-3---|-3-3-3-------0---|-----2-------2---|-----2-------2---|
|-2-2-2---2-2-2---|-2-2-2-------1---|-----2-------2---|-2-2-2---2-2-2---|
|-0-0-0---0-0-0---|-0-0-0---2-2-2---|-4-4-4---4-4-4---|-2-2-2---2-2-2---|
|-----------------|---------2-2-2---|-4-4-4---4-4-4---|-0-0-0---0-0-0---|
|-----------------|---------0-0-0---|-2-2-2---2-2-2---|-----------------|

 D                 D       E         F#m               A
|-----0-------0---|-----0-------0---|-----2-------2---|-----0-------0---|
|-3-3-3---3-3-3---|-3-3-3-------0---|-----2-------2---|-----2-------2---|
|-2-2-2---2-2-2---|-2-2-2-------1---|-----2-------2---|-2-2-2---2-2-2---|
|-0-0-0---0-0-0---|-0-0-0---2-2-2---|-4-4-4---4-4-4---|-2-2-2---2-2-2---|
|-----------------|---------2-2-2---|-4-4-4---4-4-4---|-0-0-0---0-0-0---|
|-----------------|---------0-0-0---|-2-2-2---2-2-2---|-----------------|

 D                 D       E
|-----0-------0---|-----0-----------|
|-3-3-3---3-3-3---|-3-3-3-----------|
|-2-2-2---2-2-2---|-2-2-2---1-1-----|
|-0-0-0---0-0-0---|-0-0-0---2-2-----|
|-----------------|---------2-2-----|
|-----------------|---------0-0-----|



OUTRO:
 F#m                     F#m                     F#m                     F#m
|------------9----------|------------9----------|------------9----------|------------9----------|
|---------10---10-------|---------10---10-------|---------10---10-------|---------10---10-------|
|------11---------11----|------11---------11----|------11---------11----|------11---------11----|
|---11---------------11-|---11---------------11-|---11---------------11-|---11---------------11-|
|-9---------------------|-9---------------------|-9---------------------|-9---------------------|
|-----------------------|-----------------------|-----------------------|-----------------------|

 F#m                     F#m                     F#m
|------------9----------|------------9----------|-----------------------|
|---------10---10-------|---------10---10-------|-----------------------|
|------11---------11----|------11---------11----|-----------------------|
|---11---------------11-|---11---------------11-|-----------------------|
|-9---------------------|-9---------------------|-9---------------------|
|-----------------------|-----------------------|-----------------------|



6th /feb /05
            
Submit corrections

comments powered by Disqus
↑ Back to top | Kashmir Tabs for Mom In Love, Daddy In Space. Lyrics for acoustic guitar and electric guitar. Tablatures and chords are parodies/interpretations of the original songs. You may use it for private study, scholarship, research or language learning purposes only