» » »

Kashmir, Make It Grand Tabs (ver.1)

Artists:  A B C D E F G H I J K L M N O P Q R S T U V W X Y Z # 

Make It Grand Tabs (ver.1)

Kashmir Tabs
 Rating:
3.6/5 (5 votes)
Make It Grand lessons Tabs too difficult? Try these video lessons and learn fast
                    ________________
   / Kashmir       / I think this song is about a girl known by the teller. She is very
  / Make It Grand /  frustrated and don't know what to do, as she is held back by her own
 / The Good Life /   performance anxiety, which eventually has also isolated her, and
/_______________/    even her closest friends (the milkman) have given up hope about her.


Guitar I (E A D G B E) - Clean
Guitar II (E A D G B E) - Heavily Distorted


INTRO
 98 pbm
 4/4
  Q +E   H   E   +Q   +E   E +H     W          +W
|--------------|------------------|----------|-------------|
|--------------|------------------|----------|-------------|
|-4-(4)--2---1-|-(1)--(1)--2-(2)--|----------|-------------|
|--------------|------------------|-4~-------|-(4~)--------|
|--------------|------------------|----------|-------------|
|--------------|------------------|----------|-------------|

  Q +E   H   E   +Q   +E   E +H     W       +W
|--------------|------------------|----------|-------------|
|--------------|------------------|----------|-------------|
|-4-(4)--2---1-|-(1)--(1)---------|----------|-------------|
|--------------|-----------2-(2)--|-4~-------|-(4~)--------|
|--------------|------------------|----------|-------------|
|--------------|------------------|----------|-------------|



VERSE (1st, 2nd - make a lot out of the strokes on the g-string in 2nd verse)
 Gtr I
  F#sus4 F#m     C#sus4    C#m         D                 Bm
  E E E  E E E E E   E E E E E E E E   E E E E E E E E   E E E E E E E E
|-----2------2-----|---2-------0-----|-----2-----2-----|-----2-----2-----|
|---2------2---2---|-2---2---2---2---|---3-----3---3---|---3-----3---3---|
|-4------2-------1-|-------1-------1-|-2-----2-------2-|-4-----4-------4-|
|------------------|-----------------|-----------------|-----------------|
|------------------|-----------------|-----------------|-----------------|
|------------------|-----------------|-----------------|-----------------|

  F#sus4 F#m     C#sus4    C#m         D         Db5     Bm        Bm7
  E E E  E E E E E   E E E E E E E E   E E E E E E E E   E E E E E E E E
|-----2------2-----|---2-------0-----|-----2-----4-----|-----2-----5-----|
|---2------2---2---|-2---2---2---2---|---3-----3---3---|---3-----3---3---|
|-4------2-------1-|-------1-------1-|-2-----2-------2-|-4-----4-------4-|
|------------------|-----------------|-----------------|-----------------|
|------------------|-----------------|-----------------|-----------------|
|------------------|-----------------|-----------------|-----------------|



CHORUS (1st, 2nd & 3rd)
 Gtr I
  F#                C#sus4 C#          G#m               Bm
  E E E E E E E E   E E E  E E E E E   E E E E E E E E   E E E E E E E E
|-----6-----6-----|-----4------4-----|-----7-----7-----|-----7-----7-----|
|---7-----7---7---|---7------6---6---|---9-----9---9---|---7-----7---7---|
|-6-----6-------6-|-6------6-------6-|-8-----8-------8-|-7-----7-------7-|
|-----------------|------------------|-----------------|-----------------|
|-----------------|------------------|-----------------|-----------------|
|-----------------|------------------|-----------------|-----------------|

  D#m               Bbsus4 Bb          G#m               Bm
  E E E E E E E E   E E E  E E E E E   E E E E E E E E   W
|-----6-----6-----|-----6------6-----|-----7-----7-----|-7-------|
|---7-----7---7---|---6------6---6---|---9-----9---9---|-7-------|
|-8-----8-------8-|-8------7-------7-|-8-----8-------8-|-7-------|
|-----------------|------------------|-----------------|-9-------|
|-----------------|------------------|-----------------|-9-------|
|-----------------|------------------|-----------------|-7-------|



BRIDGE
 Gtr II
    Q     E    Q E +Q     Q +E    Q  E +Q      Q     E    Q E +Q     Q +E    Q  E +Q
||----------------------|--------------------|---------------------|--------------------|
||o---------------------|--------------------|---------------------|--------------------|
||----------------------|--------------------|---------------------|-4-(4)--------------|
||--6--(6)b7==r6-4-(4)--|-6-(6)---4----------|-6--(6)b7==r6-4-(4)--|---------7--6-(6)---|
||o---------------------|------------7-(7)---|---------------------|--------------------|
||----------------------|--------------------|---------------------|--------------------|

  Q +E    Q  E +Q      Q +E    Q  E +Q      Q +E    Q  E +Q
|--------------------|--------------------|--------------------|
|--------------------|--------------------|--------------------|
|-6-(6)--------------|-6-(6)--------------|-6-(6)--------------|
|---------6--4-(4)---|---------6--4-(4)---|---------6--4-(4)---|
|--------------------|--------------------|--------------------|
|--------------------|--------------------|--------------------|

 1.                    2.
  Q +E    Q  E +Q       Q +E    Q  E +Q
|--------------------||--------------------||
|-------------------o||-------------------o||
|-7-(7)--------------||-6-(6)---6--6-(6)---||
|---------7--5-(5)---||-3-(3)---4--6-(6)---||
|-------------------o||-------------------o||
|--------------------||--------------------||



CHORUS (3rd)
 Gtr II
  F#                C#sus4  C#        G#m               Bm
  E E E E E E E E   E E E E E E E E   E E E E E E E E   E E E E E E E E
|-2-2-2-2-2-2-2-2-|-4-4-4-4-4-4-4-4-|-4-4-4-4-4-4-4-4-|-7-7-7-7-7-7-7-7-|
|-2-2-2-2-2-2-2-2-|-7-7-7-7-6-6-6-6-|-4-4-4-4-4-4-4-4-|-7-7-7-7-7-7-7-7-|
|-3-3-3-3-3-3-3-3-|-6-6-6-6-6-6-6-6-|-4-4-4-4-4-4-4-4-|-7-7-7-7-7-7-7-7-|
|-4-4-4-4-4-4-4-4-|-6-6-6-6-6-6-6-6-|-6-6-6-6-6-6-6-6-|-9-9-9-9-9-9-9-9-|
|-4-4-4-4-4-4-4-4-|-4-4-4-4-4-4-4-4-|-6-6-6-6-6-6-6-6-|-9-9-9-9-9-9-9-9-|
|-2-2-2-2-2-2-2-2-|-----------------|-4-4-4-4-4-4-4-4-|-7-7-7-7-7-7-7-7-|

  D#m               Bbsus4  Bb        G#m               Bm
  E E E E E E E E   E E E E E E E E   E E E E E E E E   E E E E E E E E
|-6-6-6-6-6-6-6-6-|-6-6-6-6-6-6-6-6-|-4-4-4-4-4-4-4-4-|-7-7-7-7-7-7-7-7-|
|-7-7-7-7-7-7-7-7-|-6-6-6-6-6-6-6-6-|-4-4-4-4-4-4-4-4-|-7-7-7-7-7-7-7-7-|
|-8-8-8-8-8-8-8-8-|-8-8-8-8-7-7-7-7-|-4-4-4-4-4-4-4-4-|-7-7-7-7-7-7-7-7-|
|-8-8-8-8-8-8-8-8-|-8-8-8-8-8-8-8-8-|-6-6-6-6-6-6-6-6-|-9-9-9-9-9-9-9-9-|
|-6-6-6-6-6-6-6-6-|-8-8-8-8-8-8-8-8-|-6-6-6-6-6-6-6-6-|-9-9-9-9-9-9-9-9-|
|-----------------|-6-6-6-6-6-6-6-6-|-4-4-4-4-4-4-4-4-|-7-7-7-7-7-7-7-7-|



29th /June /05
            
Submit corrections

comments powered by Disqus
↑ Back to top | Kashmir Tabs for Make It Grand. Lyrics for acoustic guitar and electric guitar. Tablatures and chords are parodies/interpretations of the original songs. You may use it for private study, scholarship, research or language learning purposes only