>
 >
Kalifornia 1

Kalifornia 1 Guitar Tabs

Kashmir - Kalifornia 1 chords, tabs, tablatures, lyrics

Guitar lessons | Add/correct | Request | Top 50 tabs Artists:  A B C D E F G H I J K L M N O P Q R S T U V W X Y Z 0-9

Kalifornia 1 Guitar Tabs – Kashmir

CD, Sheet music, Poster

Do you like Kalifornia 1? Share with your friends now
Bass TabsChordsTabsTabs v2Tabs v3Ukulele
-------------------------------------------------------------------------------
			     Kalifornia by Kashmir 
-------------------------------------------------------------------------------

TUNING

e
b
F# (G dropped 1 down)
D
A
E



VERSE


e |-------------------------|
b |-------------------------|
F#|-----0-------0-------0---|
D |---0---0---0---0---0---0-|
A |-------------------------|
E |-7-------5-------3-------|


e |-----------------------------------------------------------------|
b |-----------------------------------------------------------------|
F#|-----1---1-----1-----1---1-----1-----1---1-----1-----0-------1---|
D |---2---------------2---------------2---------------0---0-------0-|
A |-----------2---------------2---------------2---------------2-----|
E |-0-----0-----0---0-----0-----0---0-----0-----0---3-------0-------|


e |-------------------------------------------------------------------------|
b |-------------------------------------------------------------------------|
F#|-----------------------------------------------------0-------0-------0---|
D |---0-------0-------0-------0---------2---2-----2---0---0---0---0---0---0-|
A |-----7---7-----7-----7---7-----7---4-------4-------------0-------2-------|
E |-5-----5-----5---5-----5-----5---5-----5-----5---3-----------------------|

						    	

e |---------------------------------------------------------|
b |---------------------------------------------------------|
F#|-----1---1-----1-----1-----3---1-----1-----1---1-----0---|
D |---2---------------2-----2---------2-----2---------0---0-|
A |-----------2-------------------------------------2-------|
E |-0-----0-----0---0-----0-----0---0-----0-----0-----------|


 						    Kalifornia..
e |-------------------------------------------------------------------------|
b |-------------------------------------------------------------------------|
F#|-----------------------------------------------------0-------0-------0---|
D |---0-------0-------0-------0-------0-------0-------0---0---0---0---0---0-|
A |-----7---7-----7-----7---7-----7-----7---7-----7-------------------------|
E |-5-----5-----5---5-----5-----5---5-----5-----5---7-------5-------3-------|


						    have you gone wild?
e |-----------------------------------------------------------------|
b |-----------------------------------------------------------------|
F#|-----1---1-----1-----1---1-----1-----1---1-----1-----0-------1---|
D |---2---------------2---------------2---------------0---0-------0-|
A |-----------2---------------2---------------2---------------2-----|
E |-0-----0-----0---0-----0-----0---0-----0-----0---3-------0-------|


						    I'm shifting through your..
e |-------------------------------------------------------------------------|
b |-------------------------------------------------------------------------|
F#|-----------------------------------------------------0-------0-------0---|
D |---0-------0-------0-------0---------2---2-----2---0---0---0---0---0---0-|
A |-----7---7-----7-----7---7-----7---4-------4-------------0-------2-------|
E |-5-----5-----5---5-----5-----5---5-----5-----5---3-----------------------|


              					   dark miles.
e |---------------------------------------------------------|
b |---------------2-----------2---3-----------3-------------|
F#|-----1---1-----------1-------------1-----------1-----0---|
D |---2-------2-------2-----2-----------2---2---------0---0-|
A |-------------------------------------------------2-------|
E |-0-----0-----0---0-----0-----0---0-----0-----0-----------|


 						   Reaching out for you..
e |-------------------------------------------------------------------------|
b |-------------------------------------------------------------------------|
F#|-----------------------------------------------------0-------0-------0---|
D |---0-------0-------0-------0-------0-------0-------0---0---0---0---0---0-|
A |-----7---7-----7-----7---7-----7-----7---7-----7-------------------------|
E |-5-----5-----5---5-----5-----5---5-----5-----5---7-------5-------3-------|


						   in the headlight's glare.
e |-----------------------------------------------------------------|
b |-----------------------------------------------------------------|
F#|-----1---1-----1-----1-----0---1-----1---1-----1-----0-------1---|
D |---2---------------2---------------2---------------0---0-------0-|
A |-----------2-------------2-----------------2---------------2-----|
E |-0-----0-----0---0-----0-----0---0-----0-----0---3-------0-------|


						   But you're way too devious..
e |-------------------------------------------------------------------------|
b |-------------------------------------------------------------------------|
F#|-----------------------------------------------------0-------0-------0---|
D |---0-------0-------0-------0---------2---2-----2---0---0---0---0---0---0-|
A |-----7---7-----7-----7---7-----7---4-------4-------------0-------2-------|
E |-5-----5-----5---5-----5-----5---5-----5-----5---3-----------------------|


						   to be aware.
e |---------------------------------------------------------|
b |---------------2-----------2---3-----3-------------------|
F#|-----1---1-----------1-------------1-------1---1-----0---|
D |---2-------2-------2-----2---------------2---------0---0-|
A |-------------------------------------------------2-------|
E |-0-----0-----0---0-----0-----0---0-----0-----0-----------|



e |-------------------------------------------------|
b |-------------------------------------------------|
F#|-------------------------------------------------|
D |---0-------0-------0-------0---------2---2-----2-|
A |-----7---7-----7-----7---7-----7---4-------4-----|
E |-5-----5-----5---5-----5-----5---5-----5-----5---|




CHORUS

    Restless restless        windswept road. 

    Bm   A   G   Em            Bm  A   G   F#
e |--------------0-------------------------2----------------|
b |--3---2---3---0-------------3---2---3---2----------------|
F#|--0---3---1---1-------------0---3---1---4----------------|
D |------2---0---2-----------------2---0---4----------------|
A |--2---0-------2-------------2---0-------4----------------|
E |----------3---0---------------------3---2----------------|



   Take me some place        unfold.

    Bm   A   G   Em            Bm A
e |--------------0----------------0-------------------------|
b |--3---2---3---0-------------3--2-------------------------|
F#|--0---3---1---1-------------0--3-------------------------|
D |------2---0---2----------------2-------------------------|
A |--2---0-------2-------------2--0-------------------------|
E |----------3---0------------------------------------------|



VERSE

   Kalifornia..
e |-------------------------|
b |-------------------------|
F#|-----0-------0-------0---|
D |---0---0---0---0---0---0-|
A |-------------------------|
E |-7-------5-------3-------|

...





Comments


Popular Kashmir tabs & chords
Ruby Over Diamonds 2 Bass Tabs
Piece Of The Sun Chords
Rocket Brothers 2 Chords
Splittet Til Atomer Chords
Undisturbed Chords
Just A Phase Tabs
Petite Machine Tabs
Travelogue 1 Tabs
Vote 4 Dick Taid 1 Tabs
Mouthful Of Wasps Ukulele


Song lyrics



↑ Back to top | Tablatures and chords are parodies/interpretations of the original songs. You may use it for private study, scholarship, research or language learning purposes only
© 2014 AZChords.com Contact us | Privacy policy | DMCA | Add/correct tabs | Request tabs | Top 50 tabs