» » »

Shoot The Runner Tabs (ver.6)

Artists:  A B C D E F G H I J K L M N O P Q R S T U V W X Y Z # 

Shoot The Runner Tabs (ver.6)

Kasabian
Rating:
0/5 (0 votes)

Hard to play? Try these video lessons and learn fast.
                Hi there!

This tab is for the main guitar played throughout 'Shoot the Runner' by Kasabian. 

I have decided to include lyrics so you know exactly where you are... how you read it is how it plays!

____________________________________________________________________________

|--------------|   
|--------------|    
|--------------| 
|--------------|     x4
|-12-12-12-12--|   
|--------------|    

|---------------------------------------------|
|---------------------------------------------| 
|---------------------------------------------|   x1 for INTRO
|---------------------------------------------|
|-10-12-12-12-10-12-12-12-5-7-7-7-5-7-7-7-3-2-|  
|---------------------------------------------|

<>

Shoot the runner 
Shoot shoot the runner 
I'm a king and she's my queen 

Shoot the runner 
Shoot shoot the runner 
I'm a king and she's my queen                      

Dream 
Dream again in your way 
Always knew that you would 
Loose yourself to the scene 
Am I only a dream 

Shoot the runner 
Shoot shoot the runner 
I'm a king and she's my queen, b**ch

|-------------------------|
|-------------------------|
|-------------------------|
|------10----12-10--------|   x2
|-10-12---12-------10-12--|
|-------------------------|

|-------------------------|
|-------------------------|
|-------------------------|
|-10-8-6-4----------------|   
|-------------------------|
|-------------------------|

|---------------------------------------------|
|---------------------------------------------| 
|---------------------------------------------|   x1 
|---------------------------------------------|
|-10-12-12-12-10-12-12-12-5-7-7-7-5-7-7-7-3-2-|  
|---------------------------------------------|

<>

Bang 
Bang away with my Chang 
Always know that I can 
Get your knee's on the floor 
Absinth make you may whore 

Shoot the runner 
Shoot shoot the runner 
I'm a king and she's my queen 

Shoot the runner 
Shoot shoot the runner 
I'm a king and she's my queen, b**ch

<>

|---------------------------------------------|
|---------------------------------------------| 
|---------------------------------------------|   x1 During Solo
|---------------------------------------------|
|-10-12-12-12-10-12-12-12-5-7-7-7-5-7-7-7-3-2-|  
|---------------------------------------------|

|-------------------------|
|-------------------------|
|-------------------------|
|------10----12-10--------|   x2 During Solo
|-10-12---12-------10-12--|
|-------------------------|

|-------------------------|
|-------------------------|
|-------------------------|
|-10-8-6-4----------------|   
|-------------------------|
|-------------------------|

|---------------------------------------------|
|---------------------------------------------| 
|---------------------------------------------|   x4 During “Ahhhh” and
|---------------------------------------------|    Solo    
|-10-12-12-12-10-12-12-12-5-7-7-7-5-7-7-7-3-2-|  
|---------------------------------------------|

<>

Kings 
Kings may come and then go 
By this sword you must know 
That all things will come and then pass 
Live your days like the last

|-------------------------|
|-------------------------|
|-------------------------|
|------10----12-10--------|   x3 At End Of Song 
|-10-12---12-------10-12--|
|-------------------------|

|-------------------------|
|-------------------------|
|-------------------------|
|-10-8-6-4----------------|   
|-------------------------|
|-------------------------|

____________________________________________________________________________

And your finished!!!

Hope the ltrics helped out, good luck with the song!

Baz.
            
Hard to play? Try these video lessons and learn fast. | Correct




comments powered by Disqus
↑ Back to top | Tablatures and chords are parodies/interpretations of the original songs. You may use it for private study, scholarship, research or language learning purposes only