>
 >
Shoot The Runner

Shoot The Runner Bass Tabs

Kasabian - Shoot The Runner chords, tabs, tablatures, lyrics

Guitar lessons | Add/correct | Request | Top 50 tabs Artists:  A B C D E F G H I J K L M N O P Q R S T U V W X Y Z 0-9

Shoot The Runner Bass Tabs – Kasabian

CD, Sheet music, Poster

Do you like Shoot The Runner? Share with your friends now
Bass TabsBass Tabs v2Bass Tabs v3TabsTabs v2Tabs v3Tabs v4Tabs v5Tabs v6Tabs v7Tabs v8Tabs v9
-------------------------------------------------------------------------------
			     Shoot the runner - Kasabian
-------------------------------------------------------------------------------


Tuning: standard

Intro:

G|---------------------------------|
D|-5-5-5-5-5-5-5-5-5-5-5-5-5-5-5-5-|
A|---------------------------------|
E|---------------------------------|

Verse Chorus and the parts that arent intro or bridge:

G|---------------------------------------------------|
D|---5h7-7-7---7h5p7-7-7---7-------------------------|
A|---------------------------5h7-7-7---7-5p7-7--3--5-|
E|---------------------------------------------------|

Bridge:

G|-----5---7-5-------------5---7-5-----------------|
D|-5-7---7-----7-5-7---5-7---7-----7-5-7---7-5-3-2-|
A|-------------------------------------------------|
E|-------------------------------------------------|


| /  slide up
| \  slide down
| h  hammer-on
| p  pull-off
| ~  vibrato
| +  harmonic
| x  Mute note
===============================================================================





Comments


Popular Kasabian tabs & chords
Cutt Off Bass Tabs
Empire 1 Bass Tabs
Fast Fuse 1 Bass Tabs
Underdog Bass Tabs
Acid Turkish Bath Shelter From The Storm Tabs
Apnoea Tabs
Fast Fuse Tabs
Fast Fuse 2 Tabs
Velociraptor 1 Tabs
The Green Fairy Ukulele


Song lyrics



↑ Back to top | Tablatures and chords are parodies/interpretations of the original songs. You may use it for private study, scholarship, research or language learning purposes only
© 2014 AZChords.com Contact us | Privacy policy | DMCA | Add/correct tabs | Request tabs | Top 50 tabs