>
 >
Secret Alphabets

Secret Alphabets Bass Tabs

Kasabian - Secret Alphabets chords, tabs, tablatures, lyrics

Guitar lessons | Add/correct | Request | Top 50 tabs Artists:  A B C D E F G H I J K L M N O P Q R S T U V W X Y Z 0-9

Secret Alphabets Bass Tabs – Kasabian

CD, Sheet music, Poster

Do you like Secret Alphabets? Share with your friends now
Bass TabsTabsTabs v2
Band: Kasabian
Bassist: Chris Edwards
Tuning: Standard


Intro: (no bass till 0:30)

G|--------------------|--------------------|
D|--------------------|--------------------| Play second bar
A|------------6-4-6~--|--6-4-6---4---------|    till 0:48
E|----------4---------|4-------7---7-6-7-2-| 

Chorus and Verse: (from 0:48)

G|--------------------|    play this riff    |--------------------|         
D|--------------------|      till 2:16.      |--------------------|
A|--6-4-6---4---------| After that will be:  |--6-4-6-------------|
E|4-------7---7-6-7-2-|                      |4-------------------|

Middle part (2:24)

G|--------------|--------------|--------------|
D|--------------|--------------|--------------|
A|---66-6---66-6|---66-6---66-6|---66-6---66-6|
E|4-4----4-4----|4-4----4-4----|4-4----4-6----|

Play bass along synth part and upcoming chorus.

G|---------------------| Play this till it get slower (from 3:32)
D|---------------------| Listen for the timing to get your line
A|--6-44-6---4---------| right. It will end in 4:08.
E|4--------7---7-6-7-2-|

Outro: It's very quiet and it goes something like this:

G|--------------|   
D|-------9------|    Play this
A|----10--------|    till 4:48
E|0--------7-7--|           

/  slide up
\  slide down
h  hammer-on
p  pull-off
~  let ring





Comments


Popular Kasabian tabs & chords
Cutt Off Bass Tabs
Ketang Bass Tabs
La Fee Verte Chords
Underdog 4 Chords
Cutt Off Tabs
Ketang Tabs
Processed Beats Tabs
Running Battle Tabs
Shoot The Runner 4 Tabs
Velociraptor 1 Tabs


Song lyrics



↑ Back to top | Tablatures and chords are parodies/interpretations of the original songs. You may use it for private study, scholarship, research or language learning purposes only
© 2014 AZChords.com Contact us | Privacy policy | DMCA | Add/correct tabs | Request tabs | Top 50 tabs