» » »

Secret Alphabets Tabs (ver.2)

Artists:  A B C D E F G H I J K L M N O P Q R S T U V W X Y Z # 

Secret Alphabets Tabs (ver.2)

Kasabian
Rating:
0/5 (0 votes)
Tabs too difficult? Try these video lessons and learn fast.
                Chords: G#m F#

Main Riff:
e---------------------|
B---------------------|
G---------------------|
D---------------------|
A---6-4-6-2-4-2-1-2---|
E-4-----------------2-|

Break:
e-----------------------------------|
B-----------------------------------|
G-----------------------------------|
D-3-4-3-4-3-4-1~--------------------|
A----------------3-4-3-4-3-4-3-1----|
E--------------------------------4~-|

Verse Riff:
e---------------------------------|
B-----------------------------------|
G---4-3------4-3------3-4-----------|
D-6-----4--6-----4--6-----4---6---8-|
A----------------------------6---6--|
E-----------------------------------|

Solo:
e-----11-11~-9-9~-11~-7~-6~----|
B-9-9~----------------------7~-|
G------------------------------|
D------------------------------|
A------------------------------|
E------------------------------|

Outro Riff:
e-7---7-8-7-----|
B---8-------8-7-|
G---------------|
D---------------|
A---------------|
E---------------|
            
Tabs too difficult? Try these video lessons and learn fast.


comments powered by Disqus
↑ Back to top | Tablatures and chords are parodies/interpretations of the original songs. You may use it for private study, scholarship, research or language learning purposes only