» » »

Empire Bass tabs (ver.3)

Artists:  A B C D E F G H I J K L M N O P Q R S T U V W X Y Z # 

Empire Bass tabs (ver.3)

Kasabian
Rating:
3/5 (4 votes)

Hard to play? Try these video lessons and learn fast.
                Bassist: Chris Edwards

Tuning: Standard

This is 100% correct
The bassist uses a capo on 2nd fret 
to ease play. But this is it without a capo.

Intro + Verses
 [ x 2 then gets lower                  ]
|---------------------------------------------------------------------------|
|---------------------------------------------------------------------------|
|7-10-7-10-7-10-7-10-7-10-7-10-7-10-7-10------------------------------------|
|---------------------------------------7-10-7-10-7-10-7-10-2-5-2-5-2-5-2-5-|
x 1 for intro and x 1 for each verse

Chorus
|-----------------------------|
|-----------------------------|
|---------------10-101010-8-88|
|8-888-11-111111--------------|
11s and 10s! (not 1s and 0s)
repeat as needed.

Instrumental Bit (Bridge)
This bit starts straight after clapping.
|-----------|
|-----------|
|7-77-77-77-|
|-----------|
repeat as needed

it then changes to 
(you'll know when to change)
In the song its a synth bass
but live its bass.
|
|
|77-7575 repeat as needed
|
play 7575 quick. 


ENJOY

please leave feedback + rate. 100% correct.

By Joe Walker(Walker12)
            
Hard to play? Try these video lessons and learn fast. | Correct




comments powered by Disqus
↑ Back to top | Tablatures and chords are parodies/interpretations of the original songs. You may use it for private study, scholarship, research or language learning purposes only