>
 >
Cote

Cote Guitar Tabs

Karnivool - Cote chords, tabs, tablatures, lyrics

Guitar lessons | Add/correct | Request | Top 50 tabs Artists:  A B C D E F G H I J K L M N O P Q R S T U V W X Y Z 0-9

Cote Guitar Tabs – Karnivool

CD, Sheet music, Poster

Do you like Cote? Share with your friends now
ChordsTabsUkulele
----------------------------------------------------------------
                      C.O.T.E - Karnivool
----------------------------------------------------------------


Tuning: B F# B G B E

Intro
e |-----555---5----555-5----5-55--------------------------------|
B |-----777---7----777-7----7-77---555---55---555---------------|
G |-----777---7----777-7----7-77---444---44---444--------11-----|
B |-----555---5----555-5----5-55---555---55---555------101010---|
F#|--5------5---55-------55---55--6----6----66----6-6/8-8-8-8---|
B |--5------5---55-------55-------------------------------------|

e |-----555---5----555-5----5-55---------------------|
B |-----777---7----777-7----7-77---555---55---555~---|
G |-----777---7----777-7----7-77---444---44---444~---|
B |-----555---5----555-5----5-55---555---55---555~---|
F#|--5------5---55-------55---55--6----6----66--6~---|
B |--5------5---55-------55--------------------------|

verse x 6

e |-----555---5----555-5----5-55--------------------------------|
B |-----777---7----777-7----7-77---555---55---555---------------|
G |-----777---7----777-7----7-77---444---44---444---------------|
B |-----555---5----555-5----5-55---555---55---555------101010---|
F#|--5------5---55-------55---55--6----6----66----6-6/8-8-8-8---|
B |--5------5---55-------55-------------------------------------|

pre-chorus x 4

e |----000--000--000--00--222---|
B |----111--111--111--11--333---|
G |----000--000--000--00--000---|
B |--1-----1----1----1--1/333---|
F#|-----------------------------|
B |-----------------------------|

   "have you heard..."
e |-------------------------------|
B |-------------------------------|
G |-------------------------------|x4
B |--1-11--1-11--1-11--1-11--33---|
F#|--1-11--1-11--1-11--1-11--33---|
B |--1-11--1-11--1-11--1-11--33---|
        .     .     .     .
chorus x 2
e |---------------------------------------------------------------|
B |--5-5---5-5---5-5---5-5----3-3----1-1---1-1---1-1---1-1/333----|
G |--x-x---x-x---x-x---x-x----x-x----x-x---x-x---x-x---x-x-xxx----|
B |--5-5-x-5-5-x-5-5-x-5-5--x-3-3--x-1-1-x-1-1-x-1-1-x-1-1/333----|
F#|--5-5-x-5-5-x-5-5-x-5-5--x-3-3--x-1-1-x-1-1-x-1-1-x-1-1/333----|
B |--5-5-x-5-5-x-5-5-x-5-5--x-3-3--x-1-1-x-1-1-x-1-1-x-1-1/333----|

e |-------------------------------|
B |------1p0----------3p1---------|
G |--2p0-----2p0--2p0-----2p0-----|
B |-------------------------------|
F#|-------------------------------|
B |-------------------------------|


Repeat pre-chorus
repeat intro x 2

   "sing alone sing aloud to be alive..."
e|-----------------------------------------|
B|-----------------------------------------|
G|-----------------------------------------|x4
D|--5555-5555-5555-5555-111-111-111-111----|
A|--3333-3333-3333-3333-111-111-111-111----|
E|----------------------111-111-111-111----|

repeat pre-chorus and chorus 
repeat intro chords, played slower.


| /  slide up
| \  slide down
| h  hammer-on
| p  pull-off
| ~  vibrato
| +  harmonic
| x  Mute note
===================================================================





Comments


Popular Karnivool tabs & chords
All I Know 3 Bass Tabs
The Caudal Lure Bass Tabs
Cote Chords
Deadman 1 Tabs
Mauseum Tabs
Sewn And Silent 2 Tabs
Shutterspeed Tabs
Sleeping Satellite Tabs
Success Intro Tabs
Themata Tabs


Song lyrics



↑ Back to top | Tablatures and chords are parodies/interpretations of the original songs. You may use it for private study, scholarship, research or language learning purposes only
© 2014 AZChords.com Contact us | Privacy policy | DMCA | Add/correct tabs | Request tabs | Top 50 tabs