» » »

Karate High School, Sweep The Leg Tabs (ver.3)

Artists:  A B C D E F G H I J K L M N O P Q R S T U V W X Y Z # 

Sweep The Leg Tabs (ver.3)

Karate High School Tabs
 Rating:
3.4/5 (5 votes)
Sweep The Leg lessons Tabs too difficult? Try these video lessons and learn fast
                My First Tab (BAK)

Lead guitar to the song.
Intro - Repeat as many times as needed- little distortion.
e-4-3-4-5-8-7-6-|
B-5-4-5-6-9-8-7-|
G-4-3-4-5-8-7-6-|
D---------------|
A---------------|
D---------------|

Riff - repeat as many times a s needed - Plenty of distortion.
e--------------------|--------------------------------------------|
B--------------------|--------------------------------------------|
G--------------------|--------------------------------------------|
D-2-1-2-55-4-3-1-2---|--------------------------------------------|
A-2-1-2-55-4-3-1-2---|--------------------------------------------|
D-2-1-2-55-4-3-1-2---|-1-2-1-55-4-3-1-2---------------------------|

Riff 2 - little distortion - repeat as needed
e-333-6-5-4-3-4----------------------|
B-444-7-6-5-4-5--4-3-1-3-4-3---------|
G-333-6-5-4-3-4----------------------|
D----------------------------2-2-0-0-|
A----------------------------2-2-0-0-|
D----------------------------2-2-0-0-|

Riff 3- heavy distortion repeat    Repeat riff 3 & this once more
e------------------------------|----------------------------------------|
B------------------------------|----------------------------------------|
G------------------------------|----------------------------------------|
D-00-00-0-1-3-1-00-00-0-1-3-1--|-7777777777--33333333-------------------|
A-00-00-0-1-3-1-00-00-0-1-3-1--|-7777777777--33333333-------------------|
D-00-00-0-1-3-1-00-00-0-1-3-1--|-7777777777--33333333-------------------|

Riff 4 - repat as needed
e-----------------------------------------------------------------------|
B-----------------------------------------------------------------------|
G-----------------------------------------------------------------------|
D-10-10-10-6-6-6-2-2-2-4-4-4--------------------------------------------|
A-10-10-10-6-6-6-2-2-2-4-4-4--------------------------------------------|
D-10-10-10-6-6-6-2-2-2-4-4-4--------------------------------------------|

Try to memorize the riffs and use them how the outro does because all the outro is , is 
all of the riffs played over again.


Comment this tab because it is my first one. :) thnk u
            
Submit corrections

comments powered by Disqus
↑ Back to top | Karate High School Tabs for Sweep The Leg. Lyrics for acoustic guitar and electric guitar. Tablatures and chords are parodies/interpretations of the original songs. You may use it for private study, scholarship, research or language learning purposes only