» » »

Sweep The Leg Tabs (ver.1)

Artists:  A B C D E F G H I J K L M N O P Q R S T U V W X Y Z # 

Sweep The Leg Tabs (ver.1)

Karate High School
Rating:
1/5 (3 votes)

Tabs too difficult? Try these video lessons and learn fast.
                This is the main riff that is basically through the song.

e -----------------------------|
b -----------------------------|
g -----------------------------|
d ---1--3--5--5/6/5--3--2--3---|
a ---1--3--5--5/6/5--3--2--3---|
d ---1--3--5--5/6/5--3--2--3---|

Then there's that bit that goes 'Sign the papers'...

e -----------------------------|
b -----------------------------|
g -------PM-PM-------PM--------|
d ---0----0--1--3--1--0--------|
a ---0----0--1--3--1--0--------|
d ---0----0--1--3--1--0--------|

'If I tell myself that I can change'..

e ---------------------------|
b ---------------------------|
g ---------------------------|
d ---88888888---55555555-----|
a ---88888888---55555555-----|
d ---88888888---55555555-----|

't's not too late if you wanna sweep the leg..'
If you listen you'll hear the picking.

e --------------------------|
b --------------------------|
g ---6----------------------|
d ---6---7--2--4------------|
a ---4---7--2--4------------|
d -------7--2--4------------|
            
Tabs too difficult? Try these video lessons and learn fast.




comments powered by Disqus
↑ Back to top | Tablatures and chords are parodies/interpretations of the original songs. You may use it for private study, scholarship, research or language learning purposes only