» » »

Kapatid, Sunday Shining Tabs (ver.1)

Artists:  A B C D E F G H I J K L M N O P Q R S T U V W X Y Z # 

Sunday Shining Tabs (ver.1)

Kapatid Tabs
Rating:
5/5 (1 vote)
Sunday Shining lessons Tabs too difficult? Try these video lessons and learn fast
                                  SUNDAY SHINING BY: KAPATID

 NOTE: TNX TO KARL ROY,,, FOR YOUR HOSPITALITY... MAPA P.O.T 
 OR KAPATID ASTIG PALAGE ANG BANDA MO... SEE U AROUND ULIT!!!

             FOR ALL THE PEOPLE OF SPHINX BILLIARDS,, 
             AND FOR THE MEMORIES OF BASTARD BAND...   
                      
intro:   thick dist.
       X3                     X1
e|------------------  --------------------|
B|------------------  --------------------|
G|------------------  --------------------|
D|------------------  --------------------|
A|---------------1--  --------------------|
E|-0h2-0h2-2-2h3----  -0h2-2-2-2-2-2-2-1--|
pm ----------------------------------------

ayay yay yay yay..yeah!  X2
e|---------------------------------------------------|
B|---------------------------------------------------|
G|---------------------------------------------------|
D|-4-----4---------X-4----4---------4-4-4-4-4-4-4-4--|
A|-4-----4------1--X-4----4------1--4-4-4-4-4-4-4-4--|
E|-2-----2--2h3----X-2----2--2h3----2-2-2-2-2-2-2-2--|

such a shadow...  X2
e|---------------------------------------------------|
B|---------------------------------------------------|
G|---------------------------------------------------|
D|-4-----4---------X-4----4---------4-4-4-4-4-4-4-4--|
A|-4-----4------1--X-4----4------1--4-4-4-4-4-4-4-4--|
E|-2-----2--2h3----X-2----2--2h3----2-2-2-2-2-2-2-2--|

tired of giving... (repeat)
e|---------------------------------|
B|------3--------3-------3---------|
G|-4--4-----4--4----4--4-----4---4-|
D|-4--------4-------4--------4---4-|
A|-2--------2-------2--------2---2-|
E|---------------------------------|

 thick dist.
       X3                     X1
e|------------------  --------------------|
B|------------------  --------------------|
G|------------------  --------------------|
D|------------------  --------------------|
A|---------------1--  --------------------|
E|-0h2-0h2-2-2h3----  -0h2-2-2-2-2-2-2-1--|
pm ----------------------------------------

                  X2
e|---------------------------------------------------|
B|---------------------------------------------------|
G|---------------------------------------------------|
D|-4-----4---------X-4----4---------4-4-4-4-4-4-4-4--|
A|-4-----4------1--X-4----4------1--4-4-4-4-4-4-4-4--|
E|-2-----2--2h3----X-2----2--2h3----2-2-2-2-2-2-2-2--|

              X2
e|---------------------------------------------------|
B|---------------------------------------------------|
G|---------------------------------------------------|
D|-4-----4---------X-4----4---------4-4-4-4-4-4-4-4--|
A|-4-----4------1--X-4----4------1--4-4-4-4-4-4-4-4--|
E|-2-----2--2h3----X-2----2--2h3----2-2-2-2-2-2-2-2--|

       (repeat)
e|---------------------------------|
B|------3--------3-------3---------|
G|-4--4-----4--4----4--4-----4---4-|
D|-4--------4-------4--------4---4-|
A|-2--------2-------2--------2---2-|
E|---------------------------------|
       <<<>>>
            
Submit corrections

comments powered by Disqus
↑ Back to top | Kapatid Tabs for Sunday Shining. Lyrics for acoustic guitar and electric guitar. Tablatures and chords are parodies/interpretations of the original songs. You may use it for private study, scholarship, research or language learning purposes only