» » »

Kapatid, Buhay Tabs (ver.1)

Artists:  A B C D E F G H I J K L M N O P Q R S T U V W X Y Z # 

Buhay Tabs (ver.1)

Kapatid Tabs
 Rating:
4.2/5 (5 votes)
Buhay lessons Tabs too difficult? Try these video lessons and learn fast
1
                                    "BUHAY" BY: KAPATID

 NOTE: TNX TO KARL ROY,,, FOR YOUR HOSPITALITY... MAPA P.O.T 
 OR KAPATID ASTIG PALAGE ANG BANDA MO... SEE U AROUND ULIT!!!

intro:        X4
e|----------------------------|
B|----------------------------|
G|---7-5-7--------------------|
D|-4-7-5-7---------------7-9--|
A|-4-5-3-5------5--------5-7--|
E|-2--------5h7-----5h7-------|

lagi na lang ako naiiwan....     (bass riffs, slap)
e|--------------------------------  ------|
B|--------------------------------  ------|
G|--------------------------------  ------|
D|-4-4-4----4-4-4---4-4-4---4-4-4-  ------|
A|-4-4-4----4-4-4---4-4-4---4-4-4-  ------|
E|-2-2-2----2-2-2---2-2-2---2-2-2-  --0h2-|

             X2
e|----------------------------|
B|----------------------------|
G|---7-5-7--------------------|
D|-4-7-5-7---------------7-9--|
A|-4-5-3-5------5--------5-7--|
E|-2--------5h7-----5h7-------|

may mga bagay...
e|--------------------------------|
B|--------------------------------|
G|--------------------------------|
D|-4-4-4----4-4-4---4-4-4---4-4-4-|
A|-4-4-4----4-4-4---4-4-4---4-4-4-|
E|-2-2-2----2-2-2---2-2-2---2-2-2-|

pawis ang dugo... (guitar I)
e|------------------------------------|
B|------------------------------------|
G|-4-4-4-4--9-9-9-9--7-7-7-7--5-5-5-5-|
D|-4-4-4-4--9-9-9-9--7-7-7-7--5-5-5-5-|
A|-2-2-2-2--7-7-7-7--5-5-5-5--3-3-3-3-|
E|------------------------------------|

pawis ang dugo... (guitar II)
e|----------------------------------|
B|---3-------8-------6--------4-----|
G|-4---4---9---9---7---7----5---5---|
D|-4-------9-------7--------5-------|
A|-2-------7-------5--------3-------|
E|----------------------------------|

adlib:           X2
e|--------------------------------------|
B|------3---------8--------6--------4---|
G|--------------------------------------|
D|---4---------9---------7--------5-----|
A|-2---------7---------5--------3-------|
E|--------------------------------------|
      <<<>>>
            
Submit corrections

comments powered by Disqus
↑ Back to top | Kapatid Tabs for Buhay. Lyrics for acoustic guitar and electric guitar. 1 Tablatures and chords are parodies/interpretations of the original songs. You may use it for private study, scholarship, research or language learning purposes only