» » »

Telegrama Tabs (ver.1)

Artists:  A B C D E F G H I J K L M N O P Q R S T U V W X Y Z # 

Telegrama Tabs (ver.1)

Kapatid
Rating:
0/5 (0 votes)

Hard to play? Try these video lessons and learn fast.
                Telegrama by Kapatid

check out my cover and compo songs 

intro
    D C G G

GTR1
e|-2-------0-------3------3-------|
B|-3-------1-------3------3-------|
G|-2-------0-------0------0-------| 4x
D|-0-------2-------0------0-------|
A|---------3-------2------2-------|
E|-----------------3------3-------|

GTR2

e|----------------------------------------------------|
B|----------------------------------------------------|
G|-7--5-------------x-------------------7--5--9----7--|
D|---------5--7-----x-35-6-5-3------------------------|
A|-5--3-------------x-----------5-------5--3--7----5--|
E|---------3--5---------------------------------------|

e|----------------------------------------------------|
B|----------------------------------------------------|
G|x7--5-------------x------------------x7--5--9----7--|
D|---------5--7-----x-35-6-5-3---------x--------------|
A|x5--3-------------x------------------x5--3--7----5--|
E|---------3--5---------------------------------------|


verse D C G G
kamusta na sana'y ayos....
e|-2-------0-------3------3-------|
B|-3-------1-------3------3-------|
G|-2-------0-------0------0-------| 3x
D|-0-------2-------0------0-------|
A|---------3-------2------2-------|
E|-----------------3------3-------|

sa biglang pagpanaw niyo
e|----------------------------|
B|----------------------------|
G|----------------------------|
D|----------------------------|
A|-88888888--77777777---------|
E|-66666666--55555555---------|

kung puwede lang sana..
e|-2-------0-------3------3-------|
B|-3-------1-------3------3-------|
G|-2-------0-------0------0-------| 3x
D|-0-------2-------0------0-------|
A|---------3-------2------2-------|
E|-----------------3------3-------|

pre chorus
bakit ganito...
e|----------------------------|
B|----------------------------|
G|----------------------------|
D|----------------------------|
A|-88888888--77777777---------|
E|-66666666--55555555---------|

chorus
kaunting tiis na lang...
e|--------------------------------------|
B|--------------------------------------|
G|--------------------------------------|
D|------555-7x7x7x7---------------------|
A|-3333-333-5x5x5x5-55555555-88888888---|
E|-1111-------------33333333-66666666---|

e|--------------------------------------|
B|--------------------------------------|
G|--------------------------------------|
D|------555-7x7x7x7---------------------|
A|-3333-333-5x5x5x5-55555555-8----------|
E|-1111-------------33333333-6----------|

interlude
e|--------------------------------------------|
B|-11-11-10-------------------------10-11-----|
G|----------10-12---12b-10--8/10 12-----------|
D|--------------------------------------------|
A|--------------------------------------------|
E|--------------------------------------------|


ulitin nyo nlng ung chorus
hindi siya ganun kaaccurate. kulang siya ng ilang notes.
hope you enjoy!!
            
Hard to play? Try these video lessons and learn fast. | Correct




comments powered by Disqus
↑ Back to top | Tablatures and chords are parodies/interpretations of the original songs. You may use it for private study, scholarship, research or language learning purposes only