» » »

Kapatid, Doon Tabs (ver.1)

Artists:  A B C D E F G H I J K L M N O P Q R S T U V W X Y Z # 

Doon Tabs (ver.1)

Kapatid Tabs
 Rating:
4.2/5 (5 votes)
Doon lessons Tabs too difficult? Try these video lessons and learn fast
1
                                       "DOON" BY: KAPATID

 NOTE: TNX TO KARL ROY,,, FOR YOUR HOSPITALITY... MAPA P.O.T 
 OR KAPATID ASTIG PALAGE ANG BANDA MO... SEE U AROUND ULIT!!!

             FOR ALL THE PEOPLE OF SPHINX BILLIARDS,, 
             AND FOR THE MEMORIES OF BASTARD BAND...  

intro:
e|-------------------------------------------------------------|
B|-------------------------------------------------------------|
G|-9-9-9-9-9-9-9-8-8-8-8-8-8-8-8-9-9-9-9-9-9-9-9-8-8-8-8-8-8-8-|
D|-7-7-7-7-7-7-7-7-7-7-7-7-7-7-7-7-7-7-7-7-7-7-7-7-7-7-7-7-7-7-|
A|-------------------------------------------------------------|
E|-------------------------------------------------------------|

nasa kalawakan na ang kaibigan ko ngayon...  X2
e|-----------------------------------------------------------------|
B|-----------------------------------------------------------------|
G|-----------------------------------------------------------------|
D|-5-5-5-5-5-5-5-5-9-9-9-9-9-9-9-9-5-5-5-5-5-5-5-5-9-9-9-9-9-9-9-9-|
A|-5-5-5-5-5-5-5-5-9-9-9-9-9-9-9-9-5-5-5-5-5-5-5-5-9-9-9-9-9-9-9-9-|
E|-3-3-3-3-3-3-3-3-7-7-7-7-7-7-7-7-3-3-3-3-3-3-3-3-7-7-7-7-7-7-7-7-|

e|-------------------------------------------------------------|
B|-------------------------------------------------------------|
G|-9-9-9-9-9-9-9-8-8-8-8-8-8-8-8-9-9-9-9-9-9-9-9-8-8-8-8-8-8-8-|
D|-7-7-7-7-7-7-7-7-7-7-7-7-7-7-7-7-7-7-7-7-7-7-7-7-7-7-7-7-7-7-|
A|-------------------------------------------------------------|
E|-------------------------------------------------------------|

sa pagpikit ng kwago...
e|-----------------------------------------------------------------|
B|-----------------------------------------------------------------|
G|-----------------------------------------------------------------|
D|-5-5-5-5-5-5-5-5-9-9-9-9-9-9-9-9-5-5-5-5-5-5-5-5-9-9-9-9-9-9-9-9-|
A|-5-5-5-5-5-5-5-5-9-9-9-9-9-9-9-9-5-5-5-5-5-5-5-5-9-9-9-9-9-9-9-9-|
E|-3-3-3-3-3-3-3-3-7-7-7-7-7-7-7-7-3-3-3-3-3-3-3-3-7-7-7-7-7-7-7-7-|

ikaw sinag ng araw... (as many times)
e|-------------------------------------|
B|-------------------------------------|
G|-----4------4-------------8-------8--|
D|---5------5------------9--------9----|
A|--------5--------------------9-------|
E|-3------------------7----------------|
        (still working for the solo)
           <<<>>>
            
Submit corrections

comments powered by Disqus
↑ Back to top | Kapatid Tabs for Doon. Lyrics for acoustic guitar and electric guitar. 1 Tablatures and chords are parodies/interpretations of the original songs. You may use it for private study, scholarship, research or language learning purposes only