» » »

Kamelot, Karma Tabs (ver.2)

Artists:  A B C D E F G H I J K L M N O P Q R S T U V W X Y Z # 

Karma Tabs (ver.2)

Kamelot Tabs
 Rating:
4/5 (5 votes)
Karma lessons Tabs too difficult? Try these video lessons and learn fast
1
                Karma – Kamelot
Key: Eb-minor
Tuning: half step down!


Intro choir:

-----------5--7------5--7--8-----10--12--7-----------------|
--5-----5--------------------------------------------------|
-----------------------------------------------------------|
-----------------------------------------------------------|
-----------------------------------------------------------|
-----------------------------------------------------------|

-----------5--7------5--7--8-----10--5--7------------------|
--5-----5--------------------------------------------------|
-----------------------------------------------------------|
-----------------------------------------------------------|
-----------------------------------------------------------|
-----------------------------------------------------------|


Intro guitars (listen for timing):

-----------------------------------------------------------|
-----------------------------------------------------------|
-----------------------------------------------------------|
-2-2222-222-222-2222-2222222-2222-222-222-222-222222222----|
-2-2222-222-222-2222-2222222-2222-222-222-222-222222222----|
-0-0000-000-000-0000-0000000-0000-000-000-000-000000000----|

-----------------------------------------------------------|
-----------------------------------------------------------|
-----------------------------------------------------------|
-3-2222-222-222-2222-2222222-2222-222-222-222-222222222----|
-3-2222-222-222-2222-2222222-2222-222-222-222-222222222----|
-1-0000-000-000-0000-0000000-0000-000-000-000-000000000----|


Chorus guitars:

--------------------------------------------------------------------|
--------------------------------------------------------------------|
--------------------------------------------------------------------|
--------------------------------------------------------------------|
3333333333333333-5555555555555555-7777777777777777-7777777777777777-|
--------------------------------------------------------------------|

Chorus piano:
D#    C#    D#  A#
F#    F       C#  D#    2x

End of Intro:

--------------------|
--------------------|
--9-7---------------|
--9-7----9-7--------|
--7-5----9-7--------|
---------7-5--------|

Verse:
------------------------|
------------------------|
-9--9-10-10--9--9--7--7-|
-9--9-10-10--9--9--7--7-|
-7--7--8--8--7--7--5--5-|
------------------------|

Pre-chorus:

---------------------------------------------|
---------------------------------------------|
----4----5---2>4-----4---2---2>4-------------|
---4----4---4-----4-4---2---2----------------|
--2----2---2-----2-2---0-- 0-----------------|
---------------------------------------------|

Chorus

Verse

Chorus

Bridge

Solo: couldn't really figure it out. This is the beginning:

------------------------------------------------------|
------------------------------------------------------|
------------------------------------------------------|
------------------------------------------------------|
-9----9-10-----9-10-12-10-9-10-9-5>7------------------|
------------------------------------------------------|

Chorus

Outro = intro

Enjoy this amazing song!!
            
Submit corrections

comments powered by Disqus
↑ Back to top | Kamelot Tabs for Karma. Lyrics for acoustic guitar and electric guitar. 1 Tablatures and chords are parodies/interpretations of the original songs. You may use it for private study, scholarship, research or language learning purposes only