>
 >
Karma

Karma Guitar Tabs

Kamelot - Karma chords, tabs, tablatures, lyrics

Guitar lessons | Add/correct | Request | Top 50 tabs Artists:  A B C D E F G H I J K L M N O P Q R S T U V W X Y Z 0-9

Karma Guitar Tabs – Kamelot

CD, Sheet music, Poster

Do you like Karma? Share with your friends now
TabsTabs v2
“Karma” by Kamelot - Guitar Tablature
“Eb Tuning” - Eb, Ab, Db, Gb, Bb, Eb
Symbol Explanation:
~ - vibrato
h - hammer on
p - pull off
b - bend
/ - slide down (fall)
\ - slide up
* - palm mute
m - mute with fretting hand
a - artificial harmonic (pinch harmonic)
s - sustain (hold out)
(x)
(x) - play second time through.
(x)
Intro:
(x2)
E--------------------------------------------------------------------|
B--------------------------------------------------------------------|
G--------------------------------------------------------------------|
D--------------------------------------------------------------------|
A--------------------------------------------------------------------|
E--0-000-0-000-000-000-0-0000000-000-0-000-000-000-000-0000003-000-0-|
   * *** * *** *** *** * ******* *** * *** *** *** *** ******  *** *
E----------------------------------------------------------------|
B----------------------------------------------------------------|
G----------------------------------------------------------------|
D----------------------------------------------------------------|
A----------------------------------------------------------------|
E--000-000-000-0-0000000-000-0-000-000-000-0000000000------------|
   *** *** *** * ******* *** * *** *** *** **********

This next part is done without the chords thrown in between, but they do this live and I
it sounds so much cooler.  If you prefer the official studio version, take all the
off of the D and G string that I’ve written and there you go.  (You’ll need to add a few 
the A string, but just listen to the song, it’s a very simple part).

(x4)
E----------------------------------------------------------------|
B----------------------------------------------------------------|
G--5---------5---------5-----7---------7---------7-----9---------|
D--5---------5---------5-----7---------7---------7-----9---------|
A--3-3-3-3-3-3-3-3-3-3-3-3-3-5-5-5-5-5-5-5-5-5-5-5-5-5-7-7-7-7-7-|
E----------------------------------------------------------------|
     * * * *   * * * *   * *   * * * *   * * * *   * *   * * * *

E----------------------------------------------------------------|
B----------------------------------------------------------------|
G--9---------9-----9---------9---------9/------------------------|
D--9---------9-----9---------9---------9/------------------------|
A--7-7-7-7-7-7-7-7-7-7-7-7-7-7-7-7-7-7-7/------------------------|
E----------------------------------------------------------------|
     * * * *   * *   * * * *   * * * *

PreVerse:

E------------------------------|
B------------------------------|
G--4s----------------7-----7s--|
D--4s------2-----2s--7-----7s--|
A--2s------2-----2s--5-5-5-5s--|
E----------0-0-0-0s------------|
             * *       * *

Verse: Repeat as many times an necessary.

E-------------------------------------------------|
B-------------------------------------------------|
G--7-----7s----9-----9-----9----9s--9-----9-------|
D--7-----7s----9-----9-----10---10s-9-----9-------|
A--5-5-5-5s----7-7-7-7-7-7-7--7-7s--7-7-7-7-7-7---|
E-------------------------------------------------|
     * *         * *   * *    *       * *   * *

E----------------------------------------------------------------|
B----------------------------------------------------------------|
G--7---7s--9-----9-----9----9s--9-----9-----7---7s---------------|
D--7---7s--9-----9-----10---10s-9-----9-----7---7s---------------|
A--5-5-5s--7-7-7-7-7-7-7--7-7s--7-7-7-7-7-7-5-5-5s---------------|
E----------------------------------------------------------------|
     *       * *   * *    *       * *   * *   *

PreChorus: All of this is palm muted.  On the second time through, hit an E power chord
the end before the chorus.
(x2)
E-------------------------------------------------------------|
B-------------------------------------------------------------|
G------0-----4-----2-4-2-0-----0-----4------------------------|
D----2-----2-----2-----------2-----2-----2-4-5-4-0--(2)-------|
A--3-----2-----0-----------3-----2-----0------------(2)-------|
E---------------------------------------------------(0)-------|


Chorus: Once again, this is similar to that part of the verse where I stated that they
do this live.  And once again, if you want the studio version, take out the chords and
more notes to the root.

E----------------------------------------------------------------|
B----------------------------------------------------------------|
G--5---------5---------5-----7---------7---------7---------------|
D--5---------5---------5-----7---------7---------7-----2---------|
A--3-3-3-3-3-3-3-3-3-3-3-3-3-5-5-5-5-5-5-5-5-5-5-5-5-5-2---------|
E------------------------------------------------------0-0-0-0-0-|
     * * * *   * * * *   * *   * * * *   * * * *   * *   * * * *

E------------------------------------------------|
B------------------------------------------------|
G------------------------------------------------|
D--2---------2-----2---------2s------------------|
A--2---------2-----2---------2s------------------|
E--0-0-0-0-0-0-0-0-0-0-0-0-0-0s------------------|
     * * * *   * *   * * * *


Guitar Fill: This is the fill between two guitar parts before the third repeat of the chorus.


Guitar One
E------------------------------------------------|
B------------------------------------------------|
G------------------------------------------------|
D------------------------------------------------|
A--10-9-10-12-10-9-------------------------------|
E------------------------------------------------|


Guitar Two
E------------------------------------------------|
B------------------------------------------------|
G------------------------------------------------|
D--9--7-9--10-9--7-------------------------------|
A------------------------------------------------|
E------------------------------------------------|


Solo: I don’t know it perfectly, but this is what I sounded out.

E------------------------------------------------------|
B------------------------------------------------------|
G------------------------------------------------------|
D------------------------------------------------------|
A--9----10----9--10--12---10---9---10---9/---5---5/7~--|
E------------------------------------------------------|

E--------------------------------------------------------------------|
B-----15-13-12-13-15-13-12-13-12----------15-13-12-13-12-------------|
G--11----------------------------14-12-11----------------14-12-14b~--|
D--------------------------------------------------------------------|
A--------------------------------------------------------------------|
E--------------------------------------------------------------------|

E----------------------------------------------------------------|
B----------------------------------------------------------------|
G----------------------------------------------------------------|
D--10-9-7----9-7------7------------------------------------------|
A---------10-----10-9---10-9-7-10-9-7-5-7a~----------------------|
E----------------------------------------------------------------|

E---------------------------------------------------------------------|
B--13-12-13-12-13-12-13-12--------------------------------------------|
G--------------------------14-12-11-12~-12-11--------11-12-11~--------|
D---------------------------------------------12----------------------|
A------------------------------------------------14~------------------|
E---------------------------------------------------------------------|

E------------------------------------------------------------------|
B------------------------------------------------------------------|
G-------12~--11-12-11----------------------------------------------|
D--9-10---------------12~--4-5-4-------------------2-4-5-4-2-------|
A--------------------------------------2-----2-3-5-----------5-3-2-|
E--------------------------------2-3-5---3-5-----------------------|

E----------|
B----------|
G----------|
D----------|
A----------|
E--5-3-2~--|

Back to the Chorus...

Then go back to the Intro...and fade out.

I hope this was helpful! I could not find any good tabs for this song, so I thought I
go ahead and make one since it is by far Kamelots BEST song =)

I did my best on the solo...in the song, they have the guitar volume too low for me to
exactly what he’s playing, but oh well.  This was fun, and I hope to find another song in
of tablature.

You can go ahead and print this out, use it for anything you want, but please contact me
posting it elsewhere.  Thanks! ~Tap Master





Comments


Popular Kamelot tabs & chords
A Sailormans Hymn Chords
Don't You Cry Chords
On The Coldest Winter Night Chords
A Feast For The Vain Tabs
A Sailormans Hymn 2 Tabs
Edge Of Paradise Tabs
Farewell Tabs
The Great Pandemonium Tabs
Wings Of Despair Tabs
Temples Of Gold Ukulele


Song lyrics



↑ Back to top | Tablatures and chords are parodies/interpretations of the original songs. You may use it for private study, scholarship, research or language learning purposes only
© 2014 AZChords.com Contact us | Privacy policy | DMCA | Add/correct tabs | Request tabs | Top 50 tabs