>
 >
Night After Sidewalk 1

Night After Sidewalk 1 Guitar Tabs

Kaki King - Night After Sidewalk 1 chords, tabs, tablatures, lyrics

Guitar lessons | Add/correct | Request | Top 50 tabs Artists:  A B C D E F G H I J K L M N O P Q R S T U V W X Y Z 0-9

Night After Sidewalk 1 Guitar Tabs – Kaki King

CD, Sheet music, Poster

Do you like Night After Sidewalk 1? Share with your friends now
TabsTabs v2
Beautiful song. This is how I play it. The rhythm is pretty constant.



Part A:
|-----------0-----------0-------------------------|
|---------0-----------0-----------0---------------|
|-------0-----------0-----------0-----0h2---3-2p0-|
|-----0-----------0-----------0-----0-----0---0---|
|---0-----------0-----------0-----------0---------|
|-0-----------0-----------0-----------2-----------|

|-----------0-----------0-------------------------|
|---------0-----------0-----------0---------------|
|-------0-----------0-----------0-----0h2---3-2p0-|
|-----0-----------0-----------0-----0-----0---0---|
|---0-----------0-----------0-----------0---------|
|-0-----------0-----------0-----------2-----------|

|-------------------------------------------------|
|-----------0-----------0---------0---------------|
|-------0-----------0-----------0-----0h2---2-2p0-|
|-----0---0-------0---0-------0-----0-----0---0---|
|---0-----------0-----------0-----------0---------|
|-0-----------0-----------0-----------2-----------|

|-----------0-----------0-------------------------|
|---------0-----------0-----------0---------------|
|-------0-----------0-----------0-----0h2---3-2p0-|
|-----0-----------0-----------0-----0-----0---0---|
|---0-----------0-----------0-----------0---------|
|-0-----------0-----------0-----------2-----------|

|-----------------------------------------|
|------------------2-------2---4---2------|
|-------2-\2-3-2---------3---3---3---3p0--|
|-----2---\2-----------0------------------|
|---------\0-------0----------------------|
|-2h4-------------------------------------|

|-------------------------------------------|
|---------------------2-------2---4---2-----|
|---------2-\2-3-2----------3---3---3---3p0-|
|-0-----2---\2------------0-----------------|
|-----0-----\0--------0---------------------|
|---4---------------------------------------|
_______________________________________________________________________

Bridge 1:
|-------1---1p0-----1---1-------1---1---0---1-------|
|-------------------------0-------------------0-----|
|-----0---0-------0---0-------0---0---0---0-----0---|
|---------------------------------------------------|
|-0-0-----------0-----------0---------------------0-|
|---------------------------------------------------|
_______________________________________________________________________

(Part A)
_______________________________________________________________________

Bridge 2:
|-------1---1p0-----1---1-------1---1h3-7-|
|-------------------------0---------------|
|-----0---0-------0---0-------0---0-------|
|-----------------------------------------|
|-0-0-----------0-----------0-------------|
|-----------------------------------------|
_______________________________________________________________________

Part B:
|-8---7---5---3h5p3--p0---------0-3/5-\3-----1p0---|
|---0---0----------h5---2---0h2-------\0-0-------0-|
|-----------0-------------------------\0---2-------|
|--------------------------------------------------|
|--------------------------------------------------|
|-0-----------------------0------------------------|

|-----------0-----------0-------------------------|
|---------0-----------0-----------0---------------|
|-------0-----------0-----------0-----0h2---3-2p0-|
|-----0-----------0-----------0-----0-----0---0---|
|---0-----------0-----------0-----------0---------|
|-0-----------0-----------0-----------2-----------|


|--------0-0-1h3p1p0---------------------------0h1h3-------3-|
|--\0h2--------------0---0---0-------------0h2-----0-0---0---|
|--\0------------------2-------2p0-----0h2---------0---0-----|
|--\0------------------------------2h3-----------------------|
|------------------------------------------------------------|
|0-------------------------0-----------2---------------------|
_______________________________________________________________________

Part C:
|----------3/5-----------5-----------5/8-----------8-----------8/10|
|----0---0---------0---0-------0---0---------0---0-------0---0-----|
|--0---0---------0---0-------0---0---------0---0-------0---0-------|
|------------------------------------------------------------------|
|------------------------------------------------------------------|
|0-----------0-------------0-----------0-------------0-----------0-|

            |-----2X-----|-----2X------|--------2X-------|
|--------10------------10------------10---------------12-|
|--0---0---------9---9---------9---9---------10----10----|
|0---0---------8---8--------10--10--------12----12-------|
|------------0------------0-------------0----------------|
|--------------------------------------------------------|
|--------------------------------------------------------|

                                 |----2X-----|-------2X------|
|--------------15------------15/-----------10-------------10-|
|-----12----12---------12------------9---9---------9----9----|
|--13----13---------13----13-------8---8--------10---10------|
|0----------------0--------------0------------0--------------|
|------------------------------------------------------------|
|------------------------------------------------------------|


|-------2x------|-------3x--------|
|--------------12---------------15------------15/17/15-15--\15---------|
|-----10----10---------12----12---------12-------------12--\12--12-----|
|--12----12---------13----13---------13----13----------13--\13-----13\-|
|0----------------0----------------0-----------------------------------|
|----------------------------------------------------------------------|
|----------------------------------------------------------------------|


|---------8-----------8-------------7p5---5--p0-|
|-------0-----------0-----------0-------7---7---|
|-----0-----------0-----------0-----------------|
|---7-----------7-----------7-------------------|
|-5-----------5-----------5---------------------|
|-----------------------------------------------|

|-----------0-----------0-------------------0-----|
|-----9---9-------9---9-------9---0---0h2-2---2p0-|
|-------------------------------------0-----------|
|---7---7-------7---7-------7---7---0-------------|
|-5-----------5-----------0-----------------------|
|-------------------------------------------------|

|------------0-----------0--------------------------|
|----------0-----------0-----------0----------------|
|*-------0-----------0-----------0-----0h2---3-2p0-*| 2x
|*-----0-----------0-----------0-----0-----0---0---*|
|----0-----------0-----------0-----------0----------|
|--0-----------0-----------0-----------2------------|

|--------------------------------------------3p0----|
|----------0---------0-----------0---------2--------|
|*-------0---------2---0-------2---0---------------*| 3x
|*-----0-----0-----------0-----------0---0-------0-*|
|----0-----------0-----------0---------0------------|
|--0-----------2-----------4------------------------|
_______________________________________________________________________

(Bridge 2)
(Part B)

_______________________________________________________________________

End: (slowing down)
|----------3/5-----------5-----------5/8-----------8-----------8/12|
|----0---0---------0---0-------0---0---------0---0-------0---0-----|
|--0---0---------0---0-------0---0---------0---0-------0---0-------|
|------------------------------------------------------------------|
|------------------------------------------------------------------|
|0-----------0-------------0-----------0-------------0-------------|





Comments


Popular Kaki King tabs & chords
Ahuvati Tabs
Bari Improv 2 Tabs
Close Your Eyes And Youll Burst Into Flames Tabs
Doing The Wrong Thing Tabs
Gay Sons Of Lesbian Mothers 1 Tabs
I Never Said I Love You Tabs
Mexican Teenagers Intro Tabs
Ritual Dance Tabs
Saving Days In A Frozen Head Intro Tabs
Yellowcake Tabs


Song lyrics



↑ Back to top | Tablatures and chords are parodies/interpretations of the original songs. You may use it for private study, scholarship, research or language learning purposes only
© 2014 AZChords.com Contact us | Privacy policy | DMCA | Add/correct tabs | Request tabs | Top 50 tabs