>
 >
Night After Sidewalk

Night After Sidewalk Guitar Tabs

Kaki King - Night After Sidewalk chords, tabs, tablatures, lyrics

Guitar lessons | Add/correct | Request | Top 50 tabs Artists:  A B C D E F G H I J K L M N O P Q R S T U V W X Y Z 0-9

Night After Sidewalk Guitar Tabs – Kaki King

CD, Sheet music, Poster

Do you like Night After Sidewalk? Share with your friends now
TabsTabs v2

This is a pretty complicated song, and Kaki uses quite a few variations to
what you see here - so listen to her recording carefully and make your own
decisions about how to personalize it for yourself.  All repeated sections are written 
unless otherwise specified.


D#|----------------0-----------------0-------------------------------------|
B |-------------0-----------------0-----------------0--------------0-------|
G#|----------0-----------------0-----------------0-----0--0-h2--------2--0-|
C#|-------0-----------------0-----------------0-----------------0----------|
B |----0-----------------0-----------------0-------------------------------|
E |-0-----------------0-----------------0-----------------2----------------|
     Intro - Play 4X

D#|-------------------------------------0----------------------------------|
B |----------------0-----------0-----------------0-----------------0-----0-|
G#|----------2--2-----2--5--------5-----------5-----0-----------2-----2----|
C#|----------------------------------------------------0-------------------|
B |-------4-----4-----------7--------7-----7-----------------4--------4----|
E |-2-/4--------4--------7--------------------------------4-----------4----|

D#|-------------------0--------------------------------0-------------------|
B |----------0-----------------0-----------------------------------------0-|
G#|-2--5--------5-----------5-----0-----------8-----8-----------8-----8----|
C#|----------------------------------0-------------------------------------|
B |-------7--------7-----7-----------------9-----9-----------9-----9-------|
E |----7--------------------------------9-----------------9----------------|

D#|-------------------0----------------------------------------------------|
B |----------------------------0-------------------------------------------|
G#|-------8-----8-----------8-----0----------------------------------------|
C#|----------------------------------0-------------------------------------|
B |----9-----9-----9-----9-------------------------------------------------|
E |-9----------------------------------------------------------------------|
                                         Repeat All with next ending

D#|----------------------7--------8-----7-----5-----3-/5--3-\1-------------|
B |-------------------7--------------0-----0-----0--------------4-\2-------|
G#|----------8-----8-------------------------------------------------------|
C#|------------------------------------------------------------------------|
B |-------9-----9----------------------------------------------------------|
E |----9-----------------0--------0----------------------------------------|

D#|----------0--3-h5-----3--1-p0--------------------0-----------------0----|
B |-------------------0--0--------0--------------0-----------------0-------|
G#|----3-/5--------------2--------------------0-----------------0----------|
C#|----------------------------------------0-----------------0-------------|
B |-------------------------------------0-----------------0----------------|
E |-0--------------------2-----------0-----------------0-----------------0-|

D#|-------------------------------------------0--0--1--3--1--0-------------|
B |----------0--------------0-----------0-h2--------------------2--0-----0-|
G#|-------0-----0--0-h2--------2--0-----0-----------------------------2----|
C#|----0-----------------0-------------------------------------------------|
B |-0----------------------------------------------------------------------|
E |----------------2-----------------0-------------------------------------|

D#|-------------------------------0-h1--3--------3-----------------------3-|
B |----0--------------------0-h2--------------0-----0-----------0-----0----|
G#|-------2--0--------0-h2-----------------0-----------0-----0-----0-------|
C#|-------------2--3-------------------------------------------------------|
B |------------------------------------------------------------------------|
E |-0-----------------2-----------------0-----------------0----------------|

D#|/5--------------5-----------------5-/8--------------8-----------------8-|
B |-------0-----0-----------0-----0-----------0-----0-----------0-----0----|
G#|----0-----0-----------0-----0-----------0-----0-----------0-----0-------|
C#|------------------------------------------------------------------------|
B |------------------------------------------------------------------------|
E |-0-----------------0-----------------0-----------------0----------------|

D#|/10-------------10----------------10----------------10----------------10-|
B |-------0-----0-----------9-----9-----------9-----9-----------9-----9-----|
G#|----0-----0-----------8-----8-----------8-----8-----------10----10-------|
C#|-------------------0-----------------0-----------------0-----------------|
B |-------------------------------------------------------------------------|
E |-0-----------------------------------------------------------------------|

D#|----------------10----------------12----------------12----------------15-|
B |-------9-----9-----------10----10----------10----10----------12----12----|
G#|----10----10----------12----12----------12----12----------13----13-------|
C#|-0-----------------0-----------------0-----------------0-----------------|
B |-------------------------------------------------------------------------|
E |-------------------------------------------------------------------------|

D#|-------------15----------------10----------------10----------------10---|
B |-------12-------------9-----9-----------9-----9-----------9-----9-------|
G#|----13----13-------8-----8-----------8-----8-----------10----10---------|
C#|-0--------------0-----------------0-----------------0-----------------0-|
B |------------------------------------------------------------------------|
E |------------------------------------------------------------------------|

D#|-------------10----------------12----------------12----------------15---|
B |----9-----9-----------10----10----------10----10----------12----12------|
G#|-10----10----------12----12----------12----12----------13----13---------|
C#|----------------0-----------------0-----------------0-----------------0-|
B |------------------------------------------------------------------------|
E |------------------------------------------------------------------------|

D#|-------------15----------------15-------------15/17\15----15----15-------|
B |----12----12----------12----12----------12----------------12----12-12----|
G#|-13----13----------13----13----------13----13-------------13----13----13-|
C#|----------------0-----------------0--------------------0-----0-----------|
B |-------------------------------------------------------------------------|
E |-------------------------------------------------------------------------|

D#|-------------8--------------8--------------8--7-\5-----5--------------5-|
B |----------0--------------0--------------0-----------7-----7-------------|
G#|-------0--------------0--------------0-----------------------5----------|
C#|----7--------------7--------------7--------------------------------7----|
B |-5--------------5--------------5--------------7-----------------5-------|
E |------------------------------------------------------------------------|

D#|----5-----------5-----5-----------------------------0-------------------|
B |-------------------------------------0-----0-h2--------2--0-------------|
G#|-7-----7-----------7-----7--------0-----0--------0----------------------|
C#|-------------7-----------------0----------------------------------------|
B |----------5-----------------0--------------2----------------------------|
E |------------------------------------------------------------------------|
                                                             Play intro 2X

D#|-------------------------------------------------------------0----------|
B |-------------0--------------0--------------0--------------7-------------|
G#|----------0-----0--------2-----0--------2-----0--------5----------------|
C#|-------0----------------------------------------------------------------|
B |----0-----------------2--------------4--------------7-------------------|
E |-0-----------------2--------------4--------------7----------------------|

D#|-------------------------------------------------------------0----------|
B |-------------0--------------0--------------0--------------7-----0-------|
G#|----------0-----0--------2-----0--------2-----0--------5----------------|
C#|-------0----------------------------------------------------------------|
B |----0-----------------2--------------4--------------7-------------------|
E |-0-----------------2--------------4--------------7----------------------|

D#|----------------0--------------------------------------7----------------|
B |----------------------------------0-----------------7-------------------|
G#|-------8-----8-----------8-----8-----------8-----8----------------------|
C#|------------------------------------------------------------------------|
B |----9-----9-----------9-----9-----------9-----9-------------------------|
E |-9-----------------9-----------------9-----------------0----------------|

D#|-8-----7-----5-----3-/5--3-\1--------------------0--3-h5-----3--1-p0----|
B |----0-----0-----0--------------4-\2-----------------------0--0--------0-|
G#|-------------------------------------------3-/5--------------2----------|
C#|------------------------------------------------------------------------|
B |------------------------------------------------------------------------|
E |-0--------------------------------------0--------------------2----------|

D#|----------------0-----------------0-------------------------------------|
B |-------------0-----------------0-----------------0--------------0-------|
G#|----------0-----------------0-----------------0-----0--0-h2--------2--0-|
C#|-------0-----------------0-----------------0-----------------0----------|
B |----0-----------------0-----------------0-------------------------------|
E |-0-----------------0-----------------0-----------------2----------------|

D#|----------0--0--1--3--1--0--------------------------------------------0-|
B |----0-h2--------------------2--0-----0-----0--------------------0-h2----|
G#|----0-----------------------------2-----------2--0--------0-h2----------|
C#|----------------------------------------------------2--3----------------|
B |------------------------------------------------------------------------|
E |-0--------------------------------------0-----------------2-------------|

D#|h1--3--------3-----------------------3-/5--------------5----------------|
B |----------0-----0-----------0-----0-----------0-----0-----------0-----0-|
G#|-------0-----------0-----0-----0-----------0-----0-----------0-----0----|
C#|------------------------------------------------------------------------|
B |------------------------------------------------------------------------|
E |----0-----------------0-----------------0-----------------0-------------|

D#|-5-/8--------------8-----------------8-/12---|
B |----------0-----0-----------0-----0----------|
G#|-------0-----0-----------0-----0-------------|
C#|---------------------------------------------|
B |---------------------------------------------|
E |----0-----------------0----------------------|





Comments


Popular Kaki King tabs & chords
Jessica Chords
Youre Cheating On Your Boyfriend And Thats Alright Chords
Bari Improv 3 Tabs
Close Your Eyes And Youll Burst Into Flames Tabs
Gay Sons Of Lesbian Mothers Tabs
I Never Said I Love You Tabs
Life Being What It Is Intro Tabs
Ritual Dance Tabs
Sunnyside Tabs
You Dont Have To Be Afraid Tabs


Song lyrics



↑ Back to top | Tablatures and chords are parodies/interpretations of the original songs. You may use it for private study, scholarship, research or language learning purposes only
© 2014 AZChords.com Contact us | Privacy policy | DMCA | Add/correct tabs | Request tabs | Top 50 tabs