» » »

Gay Sons Of Lesbian Mothers Bass tabs (ver.2)

Artists:  A B C D E F G H I J K L M N O P Q R S T U V W X Y Z # 

Gay Sons Of Lesbian Mothers Bass tabs (ver.2)

Kaki King
Rating:
0/5 (0 votes)

Hard to play? Try these video lessons and learn fast.
                Bass comes in at 1:04

G|--------------------------------|
D|--------------------------------|
A|----00-33-00--------------------|
D|-33----------33-55-00-----------|

G|--------------------------------|
D|--------------------------------|
A|----00-33-00--------------------|
D|-33----------33-55-00-----------|

G|--------------------------------|
D|--------------------------------|
A|----00-33-00--------------------|
D|-33----------33-55-00-----------|

repeat trough the song
            
Hard to play? Try these video lessons and learn fast. | Correct




comments powered by Disqus
↑ Back to top | Tablatures and chords are parodies/interpretations of the original songs. You may use it for private study, scholarship, research or language learning purposes only