» » »

Kaki King, Gay Sons Of Lesbian Mothers Tabs (ver.1)

Artists:  A B C D E F G H I J K L M N O P Q R S T U V W X Y Z # 

Gay Sons Of Lesbian Mothers Tabs (ver.1)

Kaki King Tabs
Rating:
4/5 (4 votes)
Hard to play? Try these video lessons and learn fast.
                awesome. I was a bit skeptical when he gave me the tab but when i played it sounded great.
ENGJOY

E ------------------0---|
B -------0--------3---3-|
G -----2-------0--------|
D ---5------------------|
A -3--------------------|
E -----------3----------|

Main riff intro played slow with pauses
E --------------------------------------------|
B --------0-----------------------------------|
G ---2---------0-----0---------0-------0------|
D -----2----2----------2--0------0--2----2--0-|
A -3-------------------------3----------------|
E ----------------3---------------------------|

Main Melody
E ------------------------0----------------------|
B --------0-------------3---3---0--------0-------|
G ---2---------0------0-------0------2-------0---|
D -----2----2--------------------------2---2-----|
A -3-------------------------------3-------------|
E -----------------3---------------------------3-|

This is the tricky part, it's the main melody
E ---------------------------------------|
B ----------0-----------------0----------|
G ---2^0------0----0------0-------0----0-|
D -------2------2-----------7---7--------|
A -3------------------3/7------------7---|
E ---------------------------------------|

E --------------------------0^2-0-------|
B ----------0-------------3-------3-----|
G ---2^0---------0------0---------------|
D -------2----2-------------------------|
A -3------------------------------------|
E -----------------3--------------------|

Ourtro
E ----------------------------------|
B -------0-------------0------------|
G ---0^2---2^0-----0-------0---0----|
D -------------------7---7----------|
A -3-----------3/7-----------7------|
E ----------------------------------|

E ------------------------------------|
B -------0-------------------------0--|
G ---0^2---2^0-------0-----0----------|
D ---------------------0-----0--------|
A -3-----------3/7-7-----9------10----|
E ------------------------------------|

Bassline
A 33--------------5---33--55--00-|
E ----00--33--00-----------------|


Any comments or suggestions to make this tab any better than it already is, You can
            

comments powered by Disqus
↑ Back to top | Kaki King Tabs for Gay Sons Of Lesbian Mothers. Lyrics for acoustic guitar and electric guitar. Tablatures and chords are parodies/interpretations of the original songs. You may use it for private study, scholarship, research or language learning purposes only