» » »

Kaiser Chiefs, Oh My God Tabs (ver.2)

Artists:  A B C D E F G H I J K L M N O P Q R S T U V W X Y Z # 

Oh My God Tabs (ver.2)

Kaiser Chiefs Tabs
Rating:
0/5 (0 votes)
Oh My God lessons Tabs too difficult? Try these video lessons and learn fast
                Kaiser Chiefs - Oh My God


Intro
-----

E [---------------------------------------------------]
B [------------------------------------10-------12b13-]
G [-------10---12---12b14r12p10--------10-------12b14-]
D [-/12-------------------------12--------------------] (x2)
A [---------------------------------------------------]
E [---------------------------------------------------]


Verse
-----

    Dm          G
E [---------------------]
B [-6-----6-----3-----3-]
G [-7-----7-----4-----4-]
D [-7-----7-----5-----5-] (x2)
A [-5-----5-----5-----5-]
E [---------------------]


Bridge
------

    G5  D5  C5  Bb5
E [------------------|
A [------------------|
D [-----7---5---3----|
G [-5---7---5---3----| (x2)
B [-5---5---3---1----|
E [-3----------------|



Chorus
------

E [---------------------------------------------]
B [---------------------------------------------]
G [-7-x-x-7-x-x-7-x-x-7-x-x-7-x-x-7-x-x-3-x-x-5-]
D [-7-x-x-7-x-x-7-x-x-7-x-x-7-x-x-7-x-x-3-x-x-5-]
A [-5-x-x-5-x-x-5-x-x-5-x-x-5-x-x-5-x-x-1-x-x-3-]
E [---------------------------------------------]


Solo
----

E [---------------------------------------------------------------------]
B [--6----------6---------/5---6-6\-----6----------6---------/5---6-6/8-]
G [----5-7--------5-7---------------------5-7--------5-7----------------]
D [---------------------------------------------------------------------]
A [---------------------------------------------------------------------]
E [---------------------------------------------------------------------]

E [-----------------------------------------------------]
B [-6----------6---------/5---6-6------6----------6-----]
G [---5-7--------5-7---------------------5-7--------5-7-]
D [-----------------------------------------------------]
A [-----------------------------------------------------]
E [-----------------------------------------------------]

E [---------3-3s4-4s5-5s6-6s7-7s8-8s9-9s10-10s11-11s12-12s13-13s14-] etc up to 22nd fret
B [-5-5s6-6--------------------------------------------------------]
G [----------------------------------------------------------------]
D [----------------------------------------------------------------]
A [----------------------------------------------------------------]
E [----------------------------------------------------------------]
            
Submit corrections

comments powered by Disqus
↑ Back to top | Kaiser Chiefs Tabs for Oh My God. Lyrics for acoustic guitar and electric guitar. Tablatures and chords are parodies/interpretations of the original songs. You may use it for private study, scholarship, research or language learning purposes only