>
 >
Oh My God 2

Oh My God 2 Guitar Tabs

Kaiser Chiefs - Oh My God 2 chords, tabs, tablatures, lyrics

Guitar lessons | Add/correct | Request | Top 50 tabs Artists:  A B C D E F G H I J K L M N O P Q R S T U V W X Y Z 0-9

Oh My God 2 Guitar Tabs – Kaiser Chiefs

CD, Sheet music, Poster

Do you like Oh My God 2? Share with your friends now
Bass TabsBass Tabs v2ChordsChords v2TabsTabs v2Tabs v3Tabs v4Ukulele
Artist - Kaiser Chiefs
Song - oh my god
Tuning - standard

What a great song, I love this song, so I felt the need to tab it out so you all could 
along 2 it like u should! So here it is...

intro

e|-----------------------------|----|--------|
A|-----------------------------|-10-|--------|
D|-------10-12-12b13r12-10--10-|-10-|-12sb13-|
G|--10h12-----------------12---|----|--------| x2
B|-----------------------------|----|--------|
E|-----------------------------|----|--------|

Verse 1
e|------------------------------|
A|------------------------------|
D|--7--7----------7--7----------|
G|--7--7---5--5---7--7---5--5---|
B|--5--5---5--5---5--5---5--5---|
E|---------3--3----------3--3---|


e|---------------------------------------|
A|---------------------------------------|
D|-----7--5--------7--5------------------|
G|--5--7--5--8--5--7--5-8888888888888888-|
B|--5--5--3--8--5--5--3-8888888888888888-|
E|--3--------6--3-------6666666666666666-|

Verse 2
e|------------------------------|
A|------------------------------|
D|--7--7----------7--7----------|
G|--7--7---5--5---7--7---5--5---|
B|--5--5---5--5---5--5---5--5---|
E|---------3--3----------3--3---|


e|---------------------------------------|
A|---------------------------------------|
D|-----7--5--------7--5------------------|
G|--5--7--5--8--5--7--5-8888888888888888-|
B|--5--5--3--8--5--5--3-8888888888888888-|
E|--3--------6--3-------6666666666666666-|

chorus
e|---------------|
A|---------------|
D|-77-77-77-5----| x4
G|-77-77-77-5-5--|
B|-55-55-55-3-5--|
E|------------3--|

Verse 3
e|------------------------------|
A|------------------------------|
D|--7--7----------7--7----------|
G|--7--7---5--5---7--7---5--5---|
B|--5--5---5--5---5--5---5--5---|
E|---------3--3----------3--3---|


e|---------------------------------------|
A|---------------------------------------|
D|-----7--5--------7--5------------------|
G|--5--7--5--8--5--7--5-8888888888888888-|
B|--5--5--3--8--5--5--3-8888888888888888-|
E|--3--------6--3-------6666666666666666-|

chorus
e|---------------|
A|---------------|
D|-77-77-77-5----| x4
G|-77-77-77-5-5--|
B|-55-55-55-3-5--|
E|------------3--|

e|-1------1----0-1s3---|
A|--1-3----1-3---------|
D|---------------------| x4
G|---------------------|
B|---------------------|
E|---------------------|

e|-3s4-4s5-5s6-6s7-7s8-8s9-9s10-10s11-11s12-|
A|------------------------------------------|
D|------------------------------------------|
G|------------------------------------------|
B|------------------------------------------|
E|------------------------------------------|

e|-12s13-13s14-14s15-15s16-16s17-17s18-18s19-|
A|-------------------------------------------|
D|-------------------------------------------|
G|-------------------------------------------|
B|-------------------------------------------|
E|-------------------------------------------|

e|-19s20-20s21-21h22-------------------------|
A|-------------------------------------------|
D|-------------------------------------------|
G|-------------------------------------------|
B|-------------------------------------------|
E|-------------------------------------------|


chorus
e|---------------    -----|
A|---------------    -----|
D|-77-77-77-5---- x4 -----|
G|-77-77-77-5-5--    --4--|
B|-55-55-55-3-5--    --4--|
E|------------3--    --2--|

key: sb = slow bend
      b = bend
      b12 = bend until u get the 12th note sound
      h = hammer
      s = slide
      r = release

And that's it, hope u like it, I enjoyed tabbing this out, let me know what u think by 





Comments


Popular Kaiser Chiefs tabs & chords
Caroline Yes Bass Tabs
Highroyds Bass Tabs
Oh My God Chords
Spanish Metal Chords
Borm To Be A Dancer Tabs
Ecerything Is Average Nowadays Tabs
Oh My God Tabs
Retirement Tabs
Heat Dies Down Ukulele
I Predict A Riot 2 Ukulele


Song lyrics



↑ Back to top | Tablatures and chords are parodies/interpretations of the original songs. You may use it for private study, scholarship, research or language learning purposes only
© 2014 AZChords.com Contact us | Privacy policy | DMCA | Add/correct tabs | Request tabs | Top 50 tabs