>
 >
Modern Way 2

Modern Way 2 Guitar Tabs

Kaiser Chiefs - Modern Way 2 chords, tabs, tablatures, lyrics

Guitar lessons | Add/correct | Request | Top 50 tabs Artists:  A B C D E F G H I J K L M N O P Q R S T U V W X Y Z 0-9

Modern Way 2 Guitar Tabs – Kaiser Chiefs

CD, Sheet music, Poster

Do you like Modern Way 2? Share with your friends now
Bass TabsBass Tabs v2Bass Tabs v3Bass Tabs v4ChordsChords v2TabsTabs v2Tabs v3Ukulele
Standard Tuning: EADGBe, Capo 4th fret for Chords

Chords can also be played as follows:
          E A D G B e
Am - C#m (X X 6 6 5 4)
C  - E   (X 7 9 9 9 7)
F  - A   (X 7 7 6 5 5)
G  - B   (X 9 9 8 7 7)


|-----------------------------------------------------------------|
|-----------------------------------------------------------------|
|-----------------------------------------------------------------|
|-----------------------------------------------------------------|
|------11------14------7-------11------11------14------7-------11-|
|-9-------12------5-------9-------9-------12------5-------9-------|

  Am                C               F           Am
|-------------------------------------------------------|
|-------------------------------------------------------|
|-------------------------------------------------------|
|-------------------------------------------------------|
|----11------------------14--------------7-----------11-|
|-9-----------------12--------------5-----------9-------|
  I  know ‘cos I've seen it, it was great and I want it

  Am                  C              F           Am
|-------------------------------------------------------|
|-------------------------------------------------------|
|-------------------------------------------------------|
|-------------------------------------------------------|
|---------11----------------14-----------7-----------11-|
|-9-------------------12-------------5-----------9------|
  There`s no point in sitting, going crazy on my own

  Am     C                F               Am
|--------------------------------------------------|
|--------------------------------------------------|
|--------------------------------------------------|
|--------------------------------------------------|
|----11-------14--------------7-----------------11-|
|-9------12---------------5---------------9--------|
  Do you know what, I was put here in the world for

  Am        C           F              Am
|----------------------------------------------|
|----------------------------------------------|
|----------------------------------------------|
|----------------------------------------------|
|------ 11-------14-----------7-------------11-|
|-9---------12----------5--------------9-------|
  Could you tell me, in three words or more

          G           F
 It's the only way of getting out of here
          G           F
 It's the only way of getting out of here

  Am      C                F             Am
|--------------------------------------------------|
|--------------------------------------------------|
|--------------------------------------------------|
|--------------------------------------------------|
|------1------14--------------7---------------11---|
|-9-------12---------------5-------------9---------|
  Take a  lesson, from the ones who have been there
  Am              C               F            Am
|-----------------------------------------------------|
|-----------------------------------------------------|
|-----------------------------------------------------|
|-----------------------------------------------------|
|----11----------------14--------------7----------11--|
|-9---------------12--------------5------------9------|
  My brain is not damaged, but in need of some repair

  Am             C              F                  Am
|---------------------------------------------------------|
|---------------------------------------------------------|
|---------------------------------------------------------|
|---------------------------------------------------------|
|------11------------14-------------7-----------------11--|
|-9--------------12-------------5------------------9------|
  Hold on to the basics, but we can change all our tactics

  Am         C        F      Am
|--------------------------------------------------|
|--------------------------------------------------|
|--------------------------------------------------|
|--------------------------------------------------|
|-------11-------14----------------7------------11-|
|-9----------12----------------5-------------9-----|
  Don’t just sit there , going crazy on your own

          G           F
 It's the only way of getting out of here
          G           F
 It's the only way of getting out of here

  F                   Am
   This is the modern way
                     F
   Of faking it everyday
                       Am
   And taking it as we come
                          F
   And we're not the only ones
                           Am
   Is that what we used to say
                      G
   This is the modern way?

|-----------------------------------------------------------------|
|-----------------------------------------------------------------|
|-----------------------------------------------------------------|
|-----------------------------------------------------------------|
|------11------14------7-------11------11------14------7-------11-|
|-9-------12------5-------9-------9-------12------5-------9-------|

  Am               C               F             Am
|-------------------------------------------------------|
|-------------------------------------------------------|
|-------------------------------------------------------|
|-------------------------------------------------------|
|---11----------------14--------------7-------------11--|
|-9----------------12--------------5-------------9------|
  I know where I'm going, and that we are in the knowing

    Am             C                F          Am
|---------------------------------------------------|
|---------------------------------------------------|
|---------------------------------------------------|
|---------------------------------------------------|
|-----11--------------14--------------7----------11-|
|---9--------------12---------------5----------9----|
And I will stop at nothing, just to get what I want

          G           F
 It's the only way of getting out of here
          G           F
 It's the only way of getting out of here

  F                   Am
   This is the modern way
                     F
   Of faking it everyday
                       Am
   And taking it as we come
                          F
   And we're not the only ones
                           Am
   Is that what we used to say
                      G
   This is the modern way?
  F                   Am
   This is the modern way
                     F
   Of faking it everyday
                       Am
   And taking it as we come
                          F
   And we're not the only ones
                           Am
   Is that what we used to say
                      G
   This is the modern way?

|-----------------------------------------------------------------|
|-----------------------------------------------------------------|
|-----------------------------------------------------------------|
|-----------------------------------------------------------------|
|------11------14------7-------11------11------14------7-------11-|
|-9-------12------5-------9-------9-------12------5-------9-------|

|-----------------------------------------------------------|
|-----------------------------------------------------------|
|-----------------------------------------------------------|
|-----------------------------------------------------------|
|------11------14------7-------11------11------14------7----|
|-9-------12------5-------9-------9-------12------5-------9-|

Im not sure what version of the song i have tabbed here. Its not the album or radio
version, some words and bits might be different but apart from that i think its pretty
much the same.





Comments


Popular Kaiser Chiefs tabs & chords
Born To Be A Dancer Bass Tabs
I Predict A Riot 4 Bass Tabs
Ruby 6 Bass Tabs
I Predict A Riot Tabs
I Predict A Riot 2 Tabs
Kinda Girl You Are Tabs
Like It Too Much 1 Tabs
Love's Not A Competition (But I'm Winning) 1 Tabs
What Did I Ever Give You? Tabs
I Predict A Riot 2 Ukulele


Song lyrics



↑ Back to top | Tablatures and chords are parodies/interpretations of the original songs. You may use it for private study, scholarship, research or language learning purposes only
© 2014 AZChords.com Contact us | Privacy policy | DMCA | Add/correct tabs | Request tabs | Top 50 tabs