» » »

Kaiser Chiefs, Modern Way Bass tabs (ver.2)

Artists:  A B C D E F G H I J K L M N O P Q R S T U V W X Y Z # 

Modern Way Bass tabs (ver.2)

Kaiser Chiefs Tabs
Rating:
5/5 (3 votes)
Modern Way lessons Tabs too difficult? Try these video lessons and learn fast
                I dont know if these are the exact tabs but it sounds about right.
Think i missed abit out but ill get back to that...

Intro/Verse:
G---------------------------|
D---------------------------|
A----3---5---3---3---3---5--|
E-1----3---1---1---1---3----| x5

Chorus:
G--------------------------------|
D--------------------------------|
A--------------------------------|
E--3333-3-3--5555-5-5--7777-7-7--|

End of chorus:
G-------------------|
D-------------------|
A-----5--3--1--22---|
E--33---------------|

Verse 2:
G---------------------------|
D---------------------------|
A----3---5---3---3---3---5--|
E-1----3---1---1---1---3----|

Chorus:
G--------------------------------|
D--------------------------------|
A--------------------------------|
E--3333-3-3--5555-5-5--7777-7-7--|

End of chorus:
G-------------------|
D-------------------|
A-----5--3--1--22---|
E--33---------------|

Outro
G---------------------------|
D---------------------------|
A----3---5---3---3---3---5--|
E-1----3---1---1---1---3----| x4
            

comments powered by Disqus
↑ Back to top | Kaiser Chiefs Bass for Modern Way. Lyrics for acoustic guitar and electric guitar. Tablatures and chords are parodies/interpretations of the original songs. You may use it for private study, scholarship, research or language learning purposes only